  0
SECTION
  2
HEADER
  9
$ACADVER
  1
AC1024
  9
$ACADMAINTVER
 70
     6
  9
$DWGCODEPAGE
  3
ANSI_1252
  9
$LASTSAVEDBY
  1
juandavid.murillo
  9
$INSBASE
 10
0.0
 20
0.0
 30
0.0
  9
$EXTMIN
 10
-0.5
 20
-0.5
 30
-0.5
  9
$EXTMAX
 10
5.0
 20
5.0
 30
5.0
  9
$LIMMIN
 10
-0.5
 20
-0.5
  9
$LIMMAX
 10
5.0
 20
5.0
  9
$ORTHOMODE
 70
     0
  9
$REGENMODE
 70
     1
  9
$FILLMODE
 70
     1
  9
$QTEXTMODE
 70
     0
  9
$MIRRTEXT
 70
     1
  9
$LTSCALE
 40
1.0
  9
$ATTMODE
 70
     1
  9
$TEXTSIZE
 40
0.2
  9
$TRACEWID
 40
0.05
  9
$TEXTSTYLE
  7
Standard
  9
$CLAYER
  8
0
  9
$CELTYPE
  6
ByLayer
  9
$CECOLOR
 62
   256
  9
$CELTSCALE
 40
1.0
  9
$DISPSILH
 70
     0
  9
$DIMSCALE
 40
1.0
  9
$DIMASZ
 40
0.18
  9
$DIMEXO
 40
0.0625
  9
$DIMDLI
 40
0.38
  9
$DIMRND
 40
0.0
  9
$DIMDLE
 40
0.0
  9
$DIMEXE
 40
0.18
  9
$DIMTP
 40
0.0
  9
$DIMTM
 40
0.0
  9
$DIMTXT
 40
0.18
  9
$DIMCEN
 40
0.09
  9
$DIMTSZ
 40
0.0
  9
$DIMTOL
 70
     0
  9
$DIMLIM
 70
     0
  9
$DIMTIH
 70
     1
  9
$DIMTOH
 70
     1
  9
$DIMSE1
 70
     0
  9
$DIMSE2
 70
     0
  9
$DIMTAD
 70
     0
  9
$DIMZIN
 70
     0
  9
$DIMBLK
  1

  9
$DIMASO
 70
     1
  9
$DIMSHO
 70
     1
  9
$DIMPOST
  1

  9
$DIMAPOST
  1

  9
$DIMALT
 70
     0
  9
$DIMALTD
 70
     2
  9
$DIMALTF
 40
25.4
  9
$DIMLFAC
 40
1.0
  9
$DIMTOFL
 70
     0
  9
$DIMTVP
 40
0.0
  9
$DIMTIX
 70
     0
  9
$DIMSOXD
 70
     0
  9
$DIMSAH
 70
     0
  9
$DIMBLK1
  1

  9
$DIMBLK2
  1

  9
$DIMSTYLE
  2
Standard
  9
$DIMCLRD
 70
     0
  9
$DIMCLRE
 70
     0
  9
$DIMCLRT
 70
     0
  9
$DIMTFAC
 40
1.0
  9
$DIMGAP
 40
0.09
  9
$DIMJUST
 70
     0
  9
$DIMSD1
 70
     0
  9
$DIMSD2
 70
     0
  9
$DIMTOLJ
 70
     1
  9
$DIMTZIN
 70
     0
  9
$DIMALTZ
 70
     0
  9
$DIMALTTZ
 70
     0
  9
$DIMUPT
 70
     0
  9
$DIMDEC
 70
     4
  9
$DIMTDEC
 70
     4
  9
$DIMALTU
 70
     2
  9
$DIMALTTD
 70
     2
  9
$DIMTXSTY
  7
Standard
  9
$DIMAUNIT
 70
     0
  9
$DIMADEC
 70
     0
  9
$DIMALTRND
 40
0.0
  9
$DIMAZIN
 70
     0
  9
$DIMDSEP
 70
    46
  9
$DIMATFIT
 70
     3
  9
$DIMFRAC
 70
     0
  9
$DIMLDRBLK
  1

  9
$DIMLUNIT
 70
     2
  9
$DIMLWD
 70
    -2
  9
$DIMLWE
 70
    -2
  9
$DIMTMOVE
 70
     0
  9
$DIMFXL
 40
1.0
  9
$DIMFXLON
 70
     0
  9
$DIMJOGANG
 40
0.785398
  9
$DIMTFILL
 70
     0
  9
$DIMTFILLCLR
 70
     0
  9
$DIMARCSYM
 70
     0
  9
$DIMLTYPE
  6

  9
$DIMLTEX1
  6

  9
$DIMLTEX2
  6

  9
$DIMTXTDIRECTION
 70
     0
  9
$LUNITS
 70
     2
  9
$LUPREC
 70
     4
  9
$SKETCHINC
 40
0.1
  9
$FILLETRAD
 40
0.0
  9
$AUNITS
 70
     0
  9
$AUPREC
 70
     0
  9
$MENU
  1
.
  9
$ELEVATION
 40
0.0
  9
$PELEVATION
 40
0.0
  9
$THICKNESS
 40
0.0
  9
$LIMCHECK
 70
     0
  9
$CHAMFERA
 40
0.0
  9
$CHAMFERB
 40
0.0
  9
$CHAMFERC
 40
0.0
  9
$CHAMFERD
 40
0.0
  9
$SKPOLY
 70
     0
  9
$TDCREATE
 40
2460824.382727211
  9
$TDUCREATE
 40
2460824.299393878
  9
$TDUPDATE
 40
2460824.382727697
  9
$TDUUPDATE
 40
2460824.299394364
  9
$TDINDWG
 40
0.0000000116
  9
$TDUSRTIMER
 40
0.0000000116
  9
$USRTIMER
 70
     1
  9
$ANGBASE
 50
0.0
  9
$ANGDIR
 70
     0
  9
$PDMODE
 70
     0
  9
$PDSIZE
 40
0.0
  9
$PLINEWID
 40
0.0
  9
$SPLFRAME
 70
     0
  9
$SPLINETYPE
 70
     6
  9
$SPLINESEGS
 70
     8
  9
$HANDSEED
  5
2C8
  9
$SURFTAB1
 70
     6
  9
$SURFTAB2
 70
     6
  9
$SURFTYPE
 70
     6
  9
$SURFU
 70
     6
  9
$SURFV
 70
     6
  9
$UCSBASE
  2

  9
$UCSNAME
  2

  9
$UCSORG
 10
0.0
 20
0.0
 30
0.0
  9
$UCSXDIR
 10
1.0
 20
0.0
 30
0.0
  9
$UCSYDIR
 10
0.0
 20
1.0
 30
0.0
  9
$UCSORTHOREF
  2

  9
$UCSORTHOVIEW
 70
     0
  9
$UCSORGTOP
 10
0.0
 20
0.0
 30
0.0
  9
$UCSORGBOTTOM
 10
0.0
 20
0.0
 30
0.0
  9
$UCSORGLEFT
 10
0.0
 20
0.0
 30
0.0
  9
$UCSORGRIGHT
 10
0.0
 20
0.0
 30
0.0
  9
$UCSORGFRONT
 10
0.0
 20
0.0
 30
0.0
  9
$UCSORGBACK
 10
0.0
 20
0.0
 30
0.0
  9
$PUCSBASE
  2

  9
$PUCSNAME
  2

  9
$PUCSORG
 10
0.0
 20
0.0
 30
0.0
  9
$PUCSXDIR
 10
1.0
 20
0.0
 30
0.0
  9
$PUCSYDIR
 10
0.0
 20
1.0
 30
0.0
  9
$PUCSORTHOREF
  2

  9
$PUCSORTHOVIEW
 70
     0
  9
$PUCSORGTOP
 10
0.0
 20
0.0
 30
0.0
  9
$PUCSORGBOTTOM
 10
0.0
 20
0.0
 30
0.0
  9
$PUCSORGLEFT
 10
0.0
 20
0.0
 30
0.0
  9
$PUCSORGRIGHT
 10
0.0
 20
0.0
 30
0.0
  9
$PUCSORGFRONT
 10
0.0
 20
0.0
 30
0.0
  9
$PUCSORGBACK
 10
0.0
 20
0.0
 30
0.0
  9
$USERI1
 70
     0
  9
$USERI2
 70
     0
  9
$USERI3
 70
     0
  9
$USERI4
 70
     0
  9
$USERI5
 70
     0
  9
$USERR1
 40
0.0
  9
$USERR2
 40
0.0
  9
$USERR3
 40
0.0
  9
$USERR4
 40
0.0
  9
$USERR5
 40
0.0
  9
$WORLDVIEW
 70
     1
  9
$SHADEDGE
 70
     3
  9
$SHADEDIF
 70
    70
  9
$TILEMODE
 70
     1
  9
$MAXACTVP
 70
    64
  9
$PINSBASE
 10
0.0
 20
0.0
 30
0.0
  9
$PLIMCHECK
 70
     0
  9
$PEXTMIN
 10
-0.5
 20
-0.5
 30
-0.5
  9
$PEXTMAX
 10
5.0
 20
5.0
 30
5.0
  9
$PLIMMIN
 10
-0.5
 20
-0.5
  9
$PLIMMAX
 10
5.0
 20
5.0
  9
$UNITMODE
 70
     0
  9
$VISRETAIN
 70
     1
  9
$PLINEGEN
 70
     0
  9
$PSLTSCALE
 70
     1
  9
$TREEDEPTH
 70
  3020
  9
$CMLSTYLE
  2
Standard
  9
$CMLJUST
 70
     0
  9
$CMLSCALE
 40
1.0
  9
$PROXYGRAPHICS
 70
     1
  9
$MEASUREMENT
 70
     1
  9
$CELWEIGHT
370
    -1
  9
$ENDCAPS
280
     0
  9
$JOINSTYLE
280
     0
  9
$LWDISPLAY
290
     0
  9
$INSUNITS
 70
     4
  9
$HYPERLINKBASE
  1

  9
$STYLESHEET
  1

  9
$XEDIT
290
     1
  9
$CEPSNTYPE
380
     0
  9
$PSTYLEMODE
290
     1
  9
$FINGERPRINTGUID
  2
{eb105441-7823-4d3b-8e1f-b2c4be21c12a}
  9
$VERSIONGUID
  2
{FAEB1C32-E019-11D5-929B-00C0DF256EC4}
  9
$EXTNAMES
290
     1
  9
$PSVPSCALE
 40
0.0
  9
$OLESTARTUP
290
     0
  9
$SORTENTS
280
   127
  9
$INDEXCTL
280
     0
  9
$HIDETEXT
280
     1
  9
$XCLIPFRAME
280
     2
  9
$HALOGAP
280
     0
  9
$OBSCOLOR
 70
   257
  9
$OBSLTYPE
280
     0
  9
$INTERSECTIONDISPLAY
280
     0
  9
$INTERSECTIONCOLOR
 70
   257
  9
$DIMASSOC
280
     2
  9
$PROJECTNAME
  1

  9
$CAMERADISPLAY
290
     0
  9
$LENSLENGTH
 40
50.0
  9
$CAMERAHEIGHT
 40
0.0
  9
$STEPSPERSEC
 40
2.0
  9
$STEPSIZE
 40
6.0
  9
$3DDWFPREC
 40
2.0
  9
$PSOLWIDTH
 40
0.25
  9
$PSOLHEIGHT
 40
4.0
  9
$LOFTANG1
 40
1.570796
  9
$LOFTANG2
 40
1.570796
  9
$LOFTMAG1
 40
0.0
  9
$LOFTMAG2
 40
0.0
  9
$LOFTPARAM
 70
     7
  9
$LOFTNORMALS
280
     1
  9
$LATITUDE
 40
37.795
  9
$LONGITUDE
 40
-122.394
  9
$NORTHDIRECTION
 40
0.0
  9
$TIMEZONE
 70
 -8000
  9
$LIGHTGLYPHDISPLAY
280
     1
  9
$TILEMODELIGHTSYNCH
280
     1
  9
$CMATERIAL
347
44
  9
$SOLIDHIST
280
     0
  9
$SHOWHIST
280
     1
  9
$DWFFRAME
280
     2
  9
$DGNFRAME
280
     2
  9
$REALWORLDSCALE
290
     1
  9
$INTERFERECOLOR
 62
   256
  9
$CSHADOW
280
     0
  9
$SHADOWPLANELOCATION
 40
0.0
  0
ENDSEC
  0
SECTION
  2
CLASSES
  0
CLASS
  1
ACDBDICTIONARYWDFLT
  2
AcDbDictionaryWithDefault
  3
ObjectDBX Classes
 90
        0
 91
        3
280
     0
281
     0
  0
CLASS
  1
VISUALSTYLE
  2
AcDbVisualStyle
  3
ObjectDBX Classes
 90
     4095
 91
        3
280
     0
281
     0
  0
CLASS
  1
MATERIAL
  2
AcDbMaterial
  3
ObjectDBX Classes
 90
     1153
 91
        3
280
     0
281
     0
  0
CLASS
  1
SCALE
  2
AcDbScale
  3
ObjectDBX Classes
 90
     1153
 91
        3
280
     0
281
     0
  0
CLASS
  1
TABLESTYLE
  2
AcDbTableStyle
  3
ObjectDBX Classes
 90
     4095
 91
        3
280
     0
281
     0
  0
CLASS
  1
MLEADERSTYLE
  2
AcDbMLeaderStyle
  3
ACDB_MLEADERSTYLE_CLASS
 90
     4095
 91
        3
280
     0
281
     0
  0
CLASS
  1
SUN
  2
AcDbSun
  3
SCENEOE
 90
     1153
 91
        3
280
     0
281
     0
  0
CLASS
  1
RASTERVARIABLES
  2
AcDbRasterVariables
  3
ISM
 90
        0
 91
        3
280
     0
281
     0
  0
CLASS
  1
DICTIONARYVAR
  2
AcDbDictionaryVar
  3
ObjectDBX Classes
 90
        0
 91
        3
280
     0
281
     0
  0
CLASS
  1
CELLSTYLEMAP
  2
AcDbCellStyleMap
  3
ObjectDBX Classes
 90
     1152
 91
        3
280
     0
281
     0
  0
ENDSEC
  0
SECTION
  2
TABLES
  0
TABLE
  2
VPORT
  5
8
330
0
100
AcDbSymbolTable
 70
    16
  0
VPORT
  5
29
330
8
100
AcDbSymbolTableRecord
100
AcDbViewportTableRecord
  2
*Active
 70
     0
 10
0.0
 20
0.0
 11
1.0
 21
1.0
 12
0.0
 22
0.0
 13
0.0
 23
0.0
 14
0.5
 24
0.5
 15
0.5
 25
0.5
 16
0.0
 26
0.0
 36
1.0
 17
0.0
 27
0.0
 37
0.0
 40
298.714583
 41
0.059444
 42
50.0
 43
978.594526
 44
-978.594526
 50
0.0
 51
0.0
 71
     0
 72
   100
 73
     1
 74
     3
 75
     0
 76
     0
 77
     0
 78
     0
281
     0
 65
     1
110
0.0
120
0.0
130
0.0
111
1.0
121
0.0
131
0.0
112
0.0
122
1.0
132
0.0
 79
     0
146
0.0
348
2F
 60
     3
 61
     5
292
     1
282
     1
141
0.0
142
0.0
 63
   250
361
5D
  0
VPORT
  5
280
330
8
100
AcDbSymbolTableRecord
100
AcDbViewportTableRecord
  2
L1
 70
     0
 10
0.0
 20
0.0
 11
1.0
 21
1.0
 12
0.0
 22
0.0
 13
0.0
 23
0.0
 14
0.5
 24
0.5
 15
0.5
 25
0.5
 16
0.0
 26
0.0
 36
1.0
 17
0.0
 27
0.0
 37
0.0
 40
298.714583
 41
0.059444
 42
50.0
 43
978.594526
 44
-978.594526
 50
0.0
 51
0.0
 71
     0
 72
   100
 73
     1
 74
     3
 75
     0
 76
     0
 77
     0
 78
     0
281
     0
 65
     1
110
0.0
120
0.0
130
0.0
111
1.0
121
0.0
131
0.0
112
0.0
122
1.0
132
0.0
 79
     0
146
0.0
348
2F
 60
     3
 61
     5
292
     1
282
     1
141
0.0
142
0.0
 63
   256
  0
VPORT
  5
281
330
8
100
AcDbSymbolTableRecord
100
AcDbViewportTableRecord
  2
L2
 70
     0
 10
0.0
 20
0.0
 11
0.5
 21
1.0
 12
0.0
 22
0.0
 13
0.0
 23
0.0
 14
0.5
 24
0.5
 15
0.5
 25
0.5
 16
0.0
 26
-1.0
 36
0.0
 17
0.0
 27
0.0
 37
0.0
 40
1957.189052
 41
0.009073
 42
50.0
 43
1009.671875
 44
-1009.671875
 50
0.0
 51
0.0
 71
     0
 72
   100
 73
     1
 74
     3
 75
     0
 76
     0
 77
     0
 78
     0
281
     0
 65
     1
110
0.0
120
0.0
130
0.0
111
1.0
121
0.0
131
0.0
112
0.0
122
1.0
132
0.0
 79
     0
146
0.0
348
2F
 60
     3
 61
     5
292
     1
282
     1
141
0.0
142
0.0
 63
   256
  0
VPORT
  5
282
330
8
100
AcDbSymbolTableRecord
100
AcDbViewportTableRecord
  2
L2
 70
     0
 10
0.5
 20
0.0
 11
1.0
 21
1.0
 12
0.0
 22
0.0
 13
0.0
 23
0.0
 14
0.5
 24
0.5
 15
0.5
 25
0.5
 16
1.0
 26
0.0
 36
0.0
 17
0.0
 27
0.0
 37
0.0
 40
1957.189052
 41
0.009073
 42
50.0
 43
989.926688
 44
-989.926688
 50
0.0
 51
0.0
 71
     0
 72
   100
 73
     1
 74
     3
 75
     0
 76
     0
 77
     0
 78
     0
281
     0
 65
     1
110
0.0
120
0.0
130
0.0
111
1.0
121
0.0
131
0.0
112
0.0
122
1.0
132
0.0
 79
     0
146
0.0
348
2F
 60
     3
 61
     5
292
     1
282
     1
141
0.0
142
0.0
 63
   256
  0
VPORT
  5
283
330
8
100
AcDbSymbolTableRecord
100
AcDbViewportTableRecord
  2
L3
 70
     0
 10
0.0
 20
0.5
 11
1.0
 21
1.0
 12
0.0
 22
0.0
 13
0.0
 23
0.0
 14
0.5
 24
0.5
 15
0.5
 25
0.5
 16
0.0
 26
0.0
 36
1.0
 17
0.0
 27
0.0
 37
0.0
 40
298.714583
 41
0.059444
 42
50.0
 43
978.594526
 44
-978.594526
 50
0.0
 51
0.0
 71
     0
 72
   100
 73
     1
 74
     3
 75
     0
 76
     0
 77
     0
 78
     0
281
     0
 65
     1
110
0.0
120
0.0
130
0.0
111
1.0
121
0.0
131
0.0
112
0.0
122
1.0
132
0.0
 79
     0
146
0.0
348
2F
 60
     3
 61
     5
292
     1
282
     1
141
0.0
142
0.0
 63
   256
  0
VPORT
  5
284
330
8
100
AcDbSymbolTableRecord
100
AcDbViewportTableRecord
  2
L3
 70
     0
 10
0.0
 20
0.0
 11
1.0
 21
0.5
 12
0.0
 22
0.0
 13
0.0
 23
0.0
 14
0.5
 24
0.5
 15
0.5
 25
0.5
 16
0.0
 26
-1.0
 36
0.0
 17
0.0
 27
0.0
 37
0.0
 40
1957.189052
 41
0.009073
 42
50.0
 43
1009.671875
 44
-1009.671875
 50
0.0
 51
0.0
 71
     0
 72
   100
 73
     1
 74
     3
 75
     0
 76
     0
 77
     0
 78
     0
281
     0
 65
     1
110
0.0
120
0.0
130
0.0
111
1.0
121
0.0
131
0.0
112
0.0
122
1.0
132
0.0
 79
     0
146
0.0
348
2F
 60
     3
 61
     5
292
     1
282
     1
141
0.0
142
0.0
 63
   256
  0
VPORT
  5
285
330
8
100
AcDbSymbolTableRecord
100
AcDbViewportTableRecord
  2
L4
 70
     0
 10
0.0
 20
0.5
 11
0.5
 21
1.0
 12
0.0
 22
0.0
 13
0.0
 23
0.0
 14
0.5
 24
0.5
 15
0.5
 25
0.5
 16
0.0
 26
0.0
 36
1.0
 17
0.0
 27
0.0
 37
0.0
 40
298.714583
 41
0.059444
 42
50.0
 43
978.594526
 44
-978.594526
 50
0.0
 51
0.0
 71
     0
 72
   100
 73
     1
 74
     3
 75
     0
 76
     0
 77
     0
 78
     0
281
     0
 65
     1
110
0.0
120
0.0
130
0.0
111
1.0
121
0.0
131
0.0
112
0.0
122
1.0
132
0.0
 79
     0
146
0.0
348
2F
 60
     3
 61
     5
292
     1
282
     1
141
0.0
142
0.0
 63
   256
  0
VPORT
  5
286
330
8
100
AcDbSymbolTableRecord
100
AcDbViewportTableRecord
  2
L4
 70
     0
 10
0.0
 20
0.0
 11
0.5
 21
0.5
 12
0.0
 22
0.0
 13
0.0
 23
0.0
 14
0.5
 24
0.5
 15
0.5
 25
0.5
 16
0.0
 26
-1.0
 36
0.0
 17
0.0
 27
0.0
 37
0.0
 40
1957.189052
 41
0.009073
 42
50.0
 43
1009.671875
 44
-1009.671875
 50
0.0
 51
0.0
 71
     0
 72
   100
 73
     1
 74
     3
 75
     0
 76
     0
 77
     0
 78
     0
281
     0
 65
     1
110
0.0
120
0.0
130
0.0
111
1.0
121
0.0
131
0.0
112
0.0
122
1.0
132
0.0
 79
     0
146
0.0
348
2F
 60
     3
 61
     5
292
     1
282
     1
141
0.0
142
0.0
 63
   256
  0
VPORT
  5
287
330
8
100
AcDbSymbolTableRecord
100
AcDbViewportTableRecord
  2
L4
 70
     0
 10
0.5
 20
0.0
 11
1.0
 21
0.5
 12
0.0
 22
0.0
 13
0.0
 23
0.0
 14
0.5
 24
0.5
 15
0.5
 25
0.5
 16
1.0
 26
0.0
 36
0.0
 17
0.0
 27
0.0
 37
0.0
 40
1957.189052
 41
0.009073
 42
50.0
 43
989.926688
 44
-989.926688
 50
0.0
 51
0.0
 71
     0
 72
   100
 73
     1
 74
     3
 75
     0
 76
     0
 77
     0
 78
     0
281
     0
 65
     1
110
0.0
120
0.0
130
0.0
111
1.0
121
0.0
131
0.0
112
0.0
122
1.0
132
0.0
 79
     0
146
0.0
348
2F
 60
     3
 61
     5
292
     1
282
     1
141
0.0
142
0.0
 63
   256
  0
VPORT
  5
288
330
8
100
AcDbSymbolTableRecord
100
AcDbViewportTableRecord
  2
L4
 70
     0
 10
0.5
 20
0.5
 11
1.0
 21
1.0
 12
0.0
 22
0.0
 13
0.0
 23
0.0
 14
0.5
 24
0.5
 15
0.5
 25
0.5
 16
0.5773502691896258
 26
-0.5773502691896258
 36
0.5773502691896258
 17
0.0
 27
0.0
 37
0.0
 40
1922.949376
 41
0.009234
 42
50.0
 43
1001.802897
 44
-1001.802897
 50
0.0
 51
0.0
 71
     0
 72
   100
 73
     1
 74
     3
 75
     0
 76
     0
 77
     0
 78
     0
281
     0
 65
     1
110
0.0
120
0.0
130
0.0
111
1.0
121
0.0
131
0.0
112
0.0
122
1.0
132
0.0
 79
     0
146
0.0
348
2F
 60
     3
 61
     5
292
     1
282
     1
141
0.0
142
0.0
 63
   256
  0
VPORT
  5
289
330
8
100
AcDbSymbolTableRecord
100
AcDbViewportTableRecord
  2
L6
 70
     0
 10
0.0
 20
0.5
 11
0.333333
 21
1.0
 12
0.0
 22
0.0
 13
0.0
 23
0.0
 14
0.5
 24
0.5
 15
0.5
 25
0.5
 16
0.7188730927569433
 26
-0.5850486126764433
 36
0.3754192287502549
 17
0.0
 27
0.0
 37
0.0
 40
2029.5768
 41
0.008749
 42
50.0
 43
1050.803047
 44
-1050.803047
 50
0.0
 51
0.0
 71
     0
 72
   100
 73
     1
 74
     3
 75
     0
 76
     0
 77
     0
 78
     0
281
     0
 65
     1
110
0.0
120
0.0
130
0.0
111
1.0
121
0.0
131
0.0
112
0.0
122
1.0
132
0.0
 79
     0
146
0.0
348
2F
 60
     3
 61
     5
292
     1
282
     1
141
0.0
142
0.0
 63
   256
  0
VPORT
  5
28A
330
8
100
AcDbSymbolTableRecord
100
AcDbViewportTableRecord
  2
L6
 70
     0
 10
0.0
 20
0.0
 11
0.333333
 21
0.5
 12
0.0
 22
0.0
 13
0.0
 23
0.0
 14
0.5
 24
0.5
 15
0.5
 25
0.5
 16
-1.0
 26
0.0
 36
0.0
 17
0.0
 27
0.0
 37
0.0
 40
1957.189052
 41
0.009073
 42
50.0
 43
989.926688
 44
-989.926688
 50
0.0
 51
0.0
 71
     0
 72
   100
 73
     1
 74
     3
 75
     0
 76
     0
 77
     0
 78
     0
281
     0
 65
     1
110
0.0
120
0.0
130
0.0
111
1.0
121
0.0
131
0.0
112
0.0
122
1.0
132
0.0
 79
     0
146
0.0
348
2F
 60
     3
 61
     5
292
     1
282
     1
141
0.0
142
0.0
 63
   256
  0
VPORT
  5
28B
330
8
100
AcDbSymbolTableRecord
100
AcDbViewportTableRecord
  2
L6
 70
     0
 10
0.333333
 20
0.5
 11
0.666667
 21
1.0
 12
0.0
 22
0.0
 13
0.0
 23
0.0
 14
0.5
 24
0.5
 15
0.5
 25
0.5
 16
0.0
 26
0.0
 36
1.0
 17
0.0
 27
0.0
 37
0.0
 40
298.714583
 41
0.059444
 42
50.0
 43
978.594526
 44
-978.594526
 50
0.0
 51
0.0
 71
     0
 72
   100
 73
     1
 74
     3
 75
     0
 76
     0
 77
     0
 78
     0
281
     0
 65
     1
110
0.0
120
0.0
130
0.0
111
1.0
121
0.0
131
0.0
112
0.0
122
1.0
132
0.0
 79
     0
146
0.0
348
2F
 60
     3
 61
     5
292
     1
282
     1
141
0.0
142
0.0
 63
   256
  0
VPORT
  5
28C
330
8
100
AcDbSymbolTableRecord
100
AcDbViewportTableRecord
  2
L6
 70
     0
 10
0.333333
 20
0.0
 11
0.666667
 21
0.5
 12
0.0
 22
0.0
 13
0.0
 23
0.0
 14
0.5
 24
0.5
 15
0.5
 25
0.5
 16
0.0
 26
-1.0
 36
0.0
 17
0.0
 27
0.0
 37
0.0
 40
1957.189052
 41
0.009073
 42
50.0
 43
1009.671875
 44
-1009.671875
 50
0.0
 51
0.0
 71
     0
 72
   100
 73
     1
 74
     3
 75
     0
 76
     0
 77
     0
 78
     0
281
     0
 65
     1
110
0.0
120
0.0
130
0.0
111
1.0
121
0.0
131
0.0
112
0.0
122
1.0
132
0.0
 79
     0
146
0.0
348
2F
 60
     3
 61
     5
292
     1
282
     1
141
0.0
142
0.0
 63
   256
  0
VPORT
  5
28D
330
8
100
AcDbSymbolTableRecord
100
AcDbViewportTableRecord
  2
L6
 70
     0
 10
0.666667
 20
0.5
 11
1.0
 21
1.0
 12
0.0
 22
0.0
 13
0.0
 23
0.0
 14
0.5
 24
0.5
 15
0.5
 25
0.5
 16
0.5773502691896258
 26
-0.5773502691896258
 36
0.5773502691896258
 17
0.0
 27
0.0
 37
0.0
 40
1922.949376
 41
0.009234
 42
50.0
 43
1001.802897
 44
-1001.802897
 50
0.0
 51
0.0
 71
     0
 72
   100
 73
     1
 74
     3
 75
     0
 76
     0
 77
     0
 78
     0
281
     0
 65
     1
110
0.0
120
0.0
130
0.0
111
1.0
121
0.0
131
0.0
112
0.0
122
1.0
132
0.0
 79
     0
146
0.0
348
2F
 60
     3
 61
     5
292
     1
282
     1
141
0.0
142
0.0
 63
   256
  0
VPORT
  5
28E
330
8
100
AcDbSymbolTableRecord
100
AcDbViewportTableRecord
  2
L6
 70
     0
 10
0.666667
 20
0.0
 11
1.0
 21
0.5
 12
0.0
 22
0.0
 13
0.0
 23
0.0
 14
0.5
 24
0.5
 15
0.5
 25
0.5
 16
1.0
 26
0.0
 36
0.0
 17
0.0
 27
0.0
 37
0.0
 40
1957.189052
 41
0.009073
 42
50.0
 43
989.926688
 44
-989.926688
 50
0.0
 51
0.0
 71
     0
 72
   100
 73
     1
 74
     3
 75
     0
 76
     0
 77
     0
 78
     0
281
     0
 65
     1
110
0.0
120
0.0
130
0.0
111
1.0
121
0.0
131
0.0
112
0.0
122
1.0
132
0.0
 79
     0
146
0.0
348
2F
 60
     3
 61
     5
292
     1
282
     1
141
0.0
142
0.0
 63
   256
  0
ENDTAB
  0
TABLE
  2
LTYPE
  5
5
330
0
100
AcDbSymbolTable
 70
    10
  0
LTYPE
  5
14
330
5
100
AcDbSymbolTableRecord
100
AcDbLinetypeTableRecord
  2
ByBlock
 70
     0
  3

 72
    65
 73
     0
 40
0.0
  0
LTYPE
  5
15
330
5
100
AcDbSymbolTableRecord
100
AcDbLinetypeTableRecord
  2
ByLayer
 70
     0
  3

 72
    65
 73
     0
 40
0.0
  0
LTYPE
  5
16
330
5
100
AcDbSymbolTableRecord
100
AcDbLinetypeTableRecord
  2
Continuous
 70
     0
  3
Solid line
 72
    65
 73
     0
 40
0.0
  0
LTYPE
  5
5F
330
5
100
AcDbSymbolTableRecord
100
AcDbLinetypeTableRecord
  2
ACAD_ISO04W100
 70
     0
  3
ISO long-dash dot ____ . ____ . ____ . ____ . _
 72
    65
 73
     4
 40
30.0
 49
24.0
 74
     4
 75
     0
340
0
 46
0.0
 50
0.0
 44
0.0
 45
0.0
 49
-3.0
 74
     4
 75
     0
340
0
 46
0.0
 50
0.0
 44
0.0
 45
0.0
 49
0.0
 74
     4
 75
     0
340
0
 46
0.0
 50
0.0
 44
0.0
 45
0.0
 49
-3.0
 74
     4
 75
     0
340
0
 46
0.0
 50
0.0
 44
0.0
 45
0.0
  0
LTYPE
  5
60
330
5
100
AcDbSymbolTableRecord
100
AcDbLinetypeTableRecord
  2
ACAD_ISO05W100
 70
     0
  3
ISO long-dash double-dot ____ .. ____ .. ____ . 
 72
    65
 73
     6
 40
33.0
 49
24.0
 74
     4
 75
     0
340
0
 46
0.0
 50
0.0
 44
0.0
 45
0.0
 49
-3.0
 74
     4
 75
     0
340
0
 46
0.0
 50
0.0
 44
0.0
 45
0.0
 49
0.0
 74
     4
 75
     0
340
0
 46
0.0
 50
0.0
 44
0.0
 45
0.0
 49
-3.0
 74
     4
 75
     0
340
0
 46
0.0
 50
0.0
 44
0.0
 45
0.0
 49
0.0
 74
     4
 75
     0
340
0
 46
0.0
 50
0.0
 44
0.0
 45
0.0
 49
-3.0
 74
     4
 75
     0
340
0
 46
0.0
 50
0.0
 44
0.0
 45
0.0
  0
LTYPE
  5
61
330
5
100
AcDbSymbolTableRecord
100
AcDbLinetypeTableRecord
  2
ACAD_ISO06W100
 70
     0
  3
ISO long-dash triple-dot ____ ... ____ ... ____
 72
    65
 73
     8
 40
36.0
 49
24.0
 74
     4
 75
     0
340
0
 46
0.0
 50
0.0
 44
0.0
 45
0.0
 49
-3.0
 74
     4
 75
     0
340
0
 46
0.0
 50
0.0
 44
0.0
 45
0.0
 49
0.0
 74
     4
 75
     0
340
0
 46
0.0
 50
0.0
 44
0.0
 45
0.0
 49
-3.0
 74
     4
 75
     0
340
0
 46
0.0
 50
0.0
 44
0.0
 45
0.0
 49
0.0
 74
     4
 75
     0
340
0
 46
0.0
 50
0.0
 44
0.0
 45
0.0
 49
-3.0
 74
     4
 75
     0
340
0
 46
0.0
 50
0.0
 44
0.0
 45
0.0
 49
0.0
 74
     4
 75
     0
340
0
 46
0.0
 50
0.0
 44
0.0
 45
0.0
 49
-3.0
 74
     4
 75
     0
340
0
 46
0.0
 50
0.0
 44
0.0
 45
0.0
  0
LTYPE
  5
62
330
5
100
AcDbSymbolTableRecord
100
AcDbLinetypeTableRecord
  2
ACAD_ISO09W100
 70
     0
  3
ISO long-dash double-short-dash ____ __ __ ____
 72
    65
 73
     6
 40
45.0
 49
24.0
 74
     4
 75
     0
340
0
 46
0.0
 50
0.0
 44
0.0
 45
0.0
 49
-3.0
 74
     4
 75
     0
340
0
 46
0.0
 50
0.0
 44
0.0
 45
0.0
 49
6.0
 74
     4
 75
     0
340
0
 46
0.0
 50
0.0
 44
0.0
 45
0.0
 49
-3.0
 74
     4
 75
     0
340
0
 46
0.0
 50
0.0
 44
0.0
 45
0.0
 49
6.0
 74
     4
 75
     0
340
0
 46
0.0
 50
0.0
 44
0.0
 45
0.0
 49
-3.0
 74
     4
 75
     0
340
0
 46
0.0
 50
0.0
 44
0.0
 45
0.0
  0
LTYPE
  5
63
330
5
100
AcDbSymbolTableRecord
100
AcDbLinetypeTableRecord
  2
CENTER
 70
     0
  3
____ _ ____ _ ____ _ ____
 72
    65
 73
     4
 40
47.4
 49
22.0
 74
     4
 75
     0
340
0
 46
0.0
 50
0.0
 44
0.0
 45
0.0
 49
-8.5
 74
     4
 75
     0
340
0
 46
0.0
 50
0.0
 44
0.0
 45
0.0
 49
8.5
 74
     4
 75
     0
340
0
 46
0.0
 50
0.0
 44
0.0
 45
0.0
 49
-8.5
 74
     4
 75
     0
340
0
 46
0.0
 50
0.0
 44
0.0
 45
0.0
  0
LTYPE
  5
64
330
5
100
AcDbSymbolTableRecord
100
AcDbLinetypeTableRecord
  2
DASHDOT
 70
     0
  3
_._._._._._._._._._._._._._._._.
 72
    65
 73
     4
 40
70.0
 49
31.0
 74
     4
 75
     0
340
0
 46
0.0
 50
0.0
 44
0.0
 45
0.0
 49
-13.0
 74
     4
 75
     0
340
0
 46
0.0
 50
0.0
 44
0.0
 45
0.0
 49
13.0
 74
     4
 75
     0
340
0
 46
0.0
 50
0.0
 44
0.0
 45
0.0
 49
-13.0
 74
     4
 75
     0
340
0
 46
0.0
 50
0.0
 44
0.0
 45
0.0
  0
LTYPE
  5
65
330
5
100
AcDbSymbolTableRecord
100
AcDbLinetypeTableRecord
  2
DASHED
 70
     0
  3
__ __ __ __ __ __ __ __ __
 72
    65
 73
     2
 40
25.72
 49
12.86
 74
     4
 75
     0
340
0
 46
0.0
 50
0.0
 44
0.0
 45
0.0
 49
-12.86
 74
     4
 75
     0
340
0
 46
0.0
 50
0.0
 44
0.0
 45
0.0
  0
LTYPE
  5
66
330
5
100
AcDbSymbolTableRecord
100
AcDbLinetypeTableRecord
  2
DOT
 70
     0
  3
.........................
 72
    65
 73
     2
 40
10.0
 49
0.0
 74
     4
 75
     0
340
0
 46
0.0
 50
0.0
 44
0.0
 45
0.0
 49
-10.0
 74
     4
 75
     0
340
0
 46
0.0
 50
0.0
 44
0.0
 45
0.0
  0
LTYPE
  5
67
330
5
100
AcDbSymbolTableRecord
100
AcDbLinetypeTableRecord
  2
PHANTOM
 70
     0
  3
____ _ _ ____ _ _ _____ _ _ ____
 72
    65
 73
     6
 40
50.5
 49
18.0
 74
     4
 75
     0
340
0
 46
0.0
 50
0.0
 44
0.0
 45
0.0
 49
-6.5
 74
     4
 75
     0
340
0
 46
0.0
 50
0.0
 44
0.0
 45
0.0
 49
6.5
 74
     4
 75
     0
340
0
 46
0.0
 50
0.0
 44
0.0
 45
0.0
 49
-6.5
 74
     4
 75
     0
340
0
 46
0.0
 50
0.0
 44
0.0
 45
0.0
 49
6.5
 74
     4
 75
     0
340
0
 46
0.0
 50
0.0
 44
0.0
 45
0.0
 49
-6.5
 74
     4
 75
     0
340
0
 46
0.0
 50
0.0
 44
0.0
 45
0.0
  0
ENDTAB
  0
TABLE
  2
LAYER
  5
2
330
0
100
AcDbSymbolTable
 70
     2
  0
LAYER
  5
10
330
2
100
AcDbSymbolTableRecord
100
AcDbLayerTableRecord
  2
0
 70
     0
 62
     7
  6
Continuous
370
    -3
390
F
347
46
  0
LAYER
  5
69
330
2
100
AcDbSymbolTableRecord
100
AcDbLayerTableRecord
  2
1
 70
     0
 62
     7
420
 16777215
  6
Continuous
370
    -3
390
F
347
46
  0
ENDTAB
  0
TABLE
  2
STYLE
  5
3
330
0
100
AcDbSymbolTable
 70
     3
  0
STYLE
  5
11
330
3
100
AcDbSymbolTableRecord
100
AcDbTextStyleTableRecord
  2
Standard
 70
     0
 40
0.0
 41
1.0
 50
0.0
 71
     0
 42
0.2
  3
txt
  4

  0
STYLE
  5
27E
330
3
100
AcDbSymbolTableRecord
100
AcDbTextStyleTableRecord
  2
Arial
 70
     0
 40
0.0
 41
1.0
 50
0.0
 71
     0
 42
0.2
  3

  4

1001
ACAD
1000
Arial
1071
        0
  0
STYLE
  5
27F
330
3
100
AcDbSymbolTableRecord
100
AcDbTextStyleTableRecord
  2
DWGDirectTextStyle
 70
     0
 40
0.0
 41
1.0
 50
0.0
 71
     0
 42
0.2
  3
Arial
  4

  0
ENDTAB
  0
TABLE
  2
VIEW
  5
6
330
0
100
AcDbSymbolTable
 70
     0
  0
ENDTAB
  0
TABLE
  2
UCS
  5
7
330
0
100
AcDbSymbolTable
 70
     0
  0
ENDTAB
  0
TABLE
  2
APPID
  5
9
330
0
100
AcDbSymbolTable
 70
     1
  0
APPID
  5
12
330
9
100
AcDbSymbolTableRecord
100
AcDbRegAppTableRecord
  2
ACAD
 70
     0
  0
ENDTAB
  0
TABLE
  2
DIMSTYLE
  5
A
330
0
100
AcDbSymbolTable
 70
     1
100
AcDbDimStyleTable
  0
DIMSTYLE
105
27
330
A
100
AcDbSymbolTableRecord
100
AcDbDimStyleTableRecord
  2
Standard
 70
     0
178
     0
340
11
  0
ENDTAB
  0
TABLE
  2
BLOCK_RECORD
  5
1
330
0
100
AcDbSymbolTable
 70
     1
  0
BLOCK_RECORD
  5
1F
330
1
100
AcDbSymbolTableRecord
100
AcDbBlockTableRecord
  2
*Model_Space
340
22
 70
     0
280
     1
281
     0
  0
BLOCK_RECORD
  5
1B
330
1
100
AcDbSymbolTableRecord
100
AcDbBlockTableRecord
  2
*Paper_Space
340
1E
 70
     0
280
     1
281
     0
  0
BLOCK_RECORD
  5
23
330
1
100
AcDbSymbolTableRecord
100
AcDbBlockTableRecord
  2
*Paper_Space0
340
26
 70
     0
280
     1
281
     0
  0
ENDTAB
  0
ENDSEC
  0
SECTION
  2
BLOCKS
  0
BLOCK
  5
20
330
1F
100
AcDbEntity
  8
0
100
AcDbBlockBegin
  2
*Model_Space
 70
     0
 10
0.0
 20
0.0
 30
0.0
  3
*Model_Space
  1

  0
ENDBLK
  5
21
330
1F
100
AcDbEntity
  8
0
100
AcDbBlockEnd
  0
BLOCK
  5
1C
330
1B
100
AcDbEntity
 67
     1
  8
0
100
AcDbBlockBegin
  2
*Paper_Space
 70
     0
 10
0.0
 20
0.0
 30
0.0
  3
*Paper_Space
  1

  0
ENDBLK
  5
1D
330
1B
100
AcDbEntity
 67
     1
  8
0
100
AcDbBlockEnd
  0
BLOCK
  5
24
330
23
100
AcDbEntity
  8
0
100
AcDbBlockBegin
  2
*Paper_Space0
 70
     0
 10
0.0
 20
0.0
 30
0.0
  3
*Paper_Space0
  1

  0
ENDBLK
  5
25
330
23
100
AcDbEntity
  8
0
100
AcDbBlockEnd
  0
ENDSEC
  0
SECTION
  2
ENTITIES
  0
LINE
  5
68
330
1F
100
AcDbEntity
  8
1
  6
PHANTOM
 62
   135
370
    13
100
AcDbLine
 10
6167.231483
 20
6119.595697
 30
0.0
 11
6167.231483
 21
6106.095697
 31
0.0
  0
LINE
  5
6A
330
1F
100
AcDbEntity
  8
1
  6
PHANTOM
 62
   135
370
    13
100
AcDbLine
 10
6174.431483
 20
5726.095697
 30
0.0
 11
6167.231483
 21
5726.095697
 31
0.0
  0
LINE
  5
6B
330
1F
100
AcDbEntity
  8
1
  6
PHANTOM
 62
   135
370
    13
100
AcDbLine
 10
6174.431483
 20
5726.095697
 30
0.0
 11
6174.431483
 21
5671.095697
 31
0.0
  0
LINE
  5
6C
330
1F
100
AcDbEntity
  8
1
  6
PHANTOM
 62
   135
370
    13
100
AcDbLine
 10
6177.431483
 20
5671.095697
 30
0.0
 11
6174.431483
 21
5671.095697
 31
0.0
  0
LINE
  5
6D
330
1F
100
AcDbEntity
  8
1
  6
PHANTOM
 62
   135
370
    13
100
AcDbLine
 10
6177.25991
 20
5711.845697
 30
0.0
 11
6177.431483
 21
5711.845697
 31
0.0
  0
LINE
  5
6E
330
1F
100
AcDbEntity
  8
1
  6
PHANTOM
 62
   135
370
    13
100
AcDbLine
 10
6177.431483
 20
5726.095697
 30
0.0
 11
6174.431483
 21
5726.095697
 31
0.0
  0
LINE
  5
6F
330
1F
100
AcDbEntity
  8
1
  6
PHANTOM
 62
   135
370
    13
100
AcDbLine
 10
6177.25991
 20
5685.345697
 30
0.0
 11
6177.431483
 21
5685.345697
 31
0.0
  0
LINE
  5
70
330
1F
100
AcDbEntity
  8
1
  6
PHANTOM
 62
   135
370
    13
100
AcDbLine
 10
6177.25991
 20
5711.845697
 30
0.0
 11
6177.25991
 21
5685.345697
 31
0.0
  0
LINE
  5
71
330
1F
100
AcDbEntity
  8
1
  6
PHANTOM
 62
   135
370
    13
100
AcDbLine
 10
6177.431483
 20
6051.095697
 30
0.0
 11
6174.431483
 21
6051.095697
 31
0.0
  0
LINE
  5
72
330
1F
100
AcDbEntity
  8
1
  6
PHANTOM
 62
   135
370
    13
100
AcDbLine
 10
6177.431483
 20
6106.095697
 30
0.0
 11
6174.431483
 21
6106.095697
 31
0.0
  0
LINE
  5
73
330
1F
100
AcDbEntity
  8
1
  6
PHANTOM
 62
   135
370
    13
100
AcDbLine
 10
6174.431483
 20
6051.095697
 30
0.0
 11
6174.431483
 21
6106.095697
 31
0.0
  0
LINE
  5
74
330
1F
100
AcDbEntity
  8
1
  6
PHANTOM
 62
   135
370
    13
100
AcDbLine
 10
6177.25991
 20
6065.345697
 30
0.0
 11
6177.431483
 21
6065.345697
 31
0.0
  0
LINE
  5
75
330
1F
100
AcDbEntity
  8
1
  6
PHANTOM
 62
   135
370
    13
100
AcDbLine
 10
6177.25991
 20
6065.345697
 30
0.0
 11
6177.25991
 21
6091.845697
 31
0.0
  0
LINE
  5
76
330
1F
100
AcDbEntity
  8
1
  6
PHANTOM
 62
   135
370
    13
100
AcDbLine
 10
6177.25991
 20
6091.845697
 30
0.0
 11
6177.431483
 21
6091.845697
 31
0.0
  0
LINE
  5
77
330
1F
100
AcDbEntity
  8
1
  6
PHANTOM
 62
   135
370
    13
100
AcDbLine
 10
6174.431483
 20
5671.095697
 30
0.0
 11
6167.231483
 21
5671.095697
 31
0.0
  0
LINE
  5
78
330
1F
100
AcDbEntity
  8
1
  6
PHANTOM
 62
   135
370
    13
100
AcDbLine
 10
6174.431483
 20
6051.095697
 30
0.0
 11
6167.231483
 21
6051.095697
 31
0.0
  0
LINE
  5
79
330
1F
100
AcDbEntity
  8
1
  6
PHANTOM
 62
   135
370
    13
100
AcDbLine
 10
6174.431483
 20
6106.095697
 30
0.0
 11
6167.231483
 21
6106.095697
 31
0.0
  0
LINE
  5
7A
330
1F
100
AcDbEntity
  8
1
  6
Continuous
 62
   155
370
    25
100
AcDbLine
 10
5782.331483
 20
6131.595697
 30
0.0
 11
5782.331483
 21
5645.595697
 31
0.0
  0
LINE
  5
7B
330
1F
100
AcDbEntity
  8
1
  6
Continuous
 62
   155
370
    25
100
AcDbLine
 10
5786.531483
 20
5641.395697
 30
0.0
 11
6174.431483
 21
5641.395697
 31
0.0
  0
LINE
  5
7C
330
1F
100
AcDbEntity
  8
1
  6
Continuous
 62
   155
370
    25
100
AcDbLine
 10
5825.085695
 20
6022.995697
 30
0.0
 11
5834.57727
 21
6022.995697
 31
0.0
  0
LINE
  5
7D
330
1F
100
AcDbEntity
  8
1
  6
Continuous
 62
   155
370
    25
100
AcDbLine
 10
5840.031483
 20
6017.541485
 30
0.0
 11
5840.031483
 21
6008.049909
 31
0.0
  0
LINE
  5
7E
330
1F
100
AcDbEntity
  8
1
  6
PHANTOM
 62
   135
370
    13
100
AcDbLine
 10
5807.731483
 20
5668.595697
 30
0.0
 11
5807.731483
 21
5664.595697
 31
0.0
  0
LINE
  5
7F
330
1F
100
AcDbEntity
  8
1
  6
PHANTOM
 62
   135
370
    13
100
AcDbLine
 10
5809.731483
 20
5668.595697
 30
0.0
 11
5807.731483
 21
5668.595697
 31
0.0
  0
LINE
  5
80
330
1F
100
AcDbEntity
  8
1
  6
PHANTOM
 62
   135
370
    13
100
AcDbLine
 10
5809.731483
 20
6108.595697
 30
0.0
 11
5807.731483
 21
6108.595697
 31
0.0
  0
LINE
  5
81
330
1F
100
AcDbEntity
  8
1
  6
PHANTOM
 62
   135
370
    13
100
AcDbLine
 10
6145.231483
 20
5668.595697
 30
0.0
 11
6131.231483
 21
5668.595697
 31
0.0
  0
LINE
  5
82
330
1F
100
AcDbEntity
  8
1
  6
PHANTOM
 62
   135
370
    13
100
AcDbLine
 10
6145.231483
 20
6108.595697
 30
0.0
 11
6131.231483
 21
6108.595697
 31
0.0
  0
LINE
  5
83
330
1F
100
AcDbEntity
  8
1
  6
PHANTOM
 62
   135
370
    13
100
AcDbLine
 10
6145.231483
 20
5668.595697
 30
0.0
 11
6145.231483
 21
6108.595697
 31
0.0
  0
LINE
  5
84
330
1F
100
AcDbEntity
  8
1
  6
PHANTOM
 62
   135
370
    13
100
AcDbLine
 10
5807.731483
 20
5664.595697
 30
0.0
 11
6153.231483
 21
5664.595697
 31
0.0
  0
LINE
  5
85
330
1F
100
AcDbEntity
  8
1
  6
PHANTOM
 62
   135
370
    13
100
AcDbLine
 10
6153.231483
 20
6112.595697
 30
0.0
 11
5807.731483
 21
6112.595697
 31
0.0
  0
LINE
  5
86
330
1F
100
AcDbEntity
  8
1
  6
PHANTOM
 62
   135
370
    13
100
AcDbLine
 10
6153.231483
 20
5664.595697
 30
0.0
 11
6153.231483
 21
6112.595697
 31
0.0
  0
LINE
  5
87
330
1F
100
AcDbEntity
  8
1
  6
PHANTOM
 62
   135
370
    13
100
AcDbLine
 10
5800.731483
 20
6126.595697
 30
0.0
 11
6160.231483
 21
6126.595697
 31
0.0
  0
LINE
  5
88
330
1F
100
AcDbEntity
  8
1
  6
PHANTOM
 62
   135
370
    13
100
AcDbLine
 10
6160.231483
 20
5650.595697
 30
0.0
 11
5800.731483
 21
5650.595697
 31
0.0
  0
LINE
  5
89
330
1F
100
AcDbEntity
  8
1
  6
PHANTOM
 62
   135
370
    13
100
AcDbLine
 10
6167.231483
 20
6051.095697
 30
0.0
 11
6167.231483
 21
5726.095697
 31
0.0
  0
LINE
  5
8A
330
1F
100
AcDbEntity
  8
1
  6
PHANTOM
 62
   135
370
    13
100
AcDbLine
 10
6167.231483
 20
5671.095697
 30
0.0
 11
6167.231483
 21
5657.595697
 31
0.0
  0
LINE
  5
8B
330
1F
100
AcDbEntity
  8
1
  6
PHANTOM
 62
   135
370
    13
100
AcDbLine
 10
5786.531483
 20
5642.595697
 30
0.0
 11
6174.431483
 21
5642.595697
 31
0.0
  0
LINE
  5
8C
330
1F
100
AcDbEntity
  8
1
  6
PHANTOM
 62
   135
370
    13
100
AcDbLine
 10
6174.431483
 20
6134.595697
 30
0.0
 11
5786.531483
 21
6134.595697
 31
0.0
  0
LINE
  5
8D
330
1F
100
AcDbEntity
  8
1
  6
PHANTOM
 62
   135
370
    13
100
AcDbLine
 10
6177.431483
 20
5645.595697
 30
0.0
 11
6177.431483
 21
6131.595697
 31
0.0
  0
LINE
  5
8E
330
1F
100
AcDbEntity
  8
1
  6
PHANTOM
 62
   135
370
    13
100
AcDbLine
 10
5807.731483
 20
6112.595697
 30
0.0
 11
5800.731483
 21
6119.595697
 31
0.0
  0
LINE
  5
8F
330
1F
100
AcDbEntity
  8
1
  6
PHANTOM
 62
   135
370
    13
100
AcDbLine
 10
5807.731483
 20
5664.595697
 30
0.0
 11
5800.731483
 21
5657.595697
 31
0.0
  0
LINE
  5
90
330
1F
100
AcDbEntity
  8
1
  6
PHANTOM
 62
   135
370
    13
100
AcDbLine
 10
6167.231483
 20
6051.095697
 30
0.0
 11
6167.159686
 21
6051.095697
 31
0.0
  0
LINE
  5
91
330
1F
100
AcDbEntity
  8
1
  6
PHANTOM
 62
   135
370
    13
100
AcDbLine
 10
6167.159686
 20
6106.095697
 30
0.0
 11
6167.231483
 21
6106.095697
 31
0.0
  0
LINE
  5
92
330
1F
100
AcDbEntity
  8
1
  6
PHANTOM
 62
   135
370
    13
100
AcDbLine
 10
6167.231483
 20
5671.095697
 30
0.0
 11
6167.159686
 21
5671.095697
 31
0.0
  0
LINE
  5
93
330
1F
100
AcDbEntity
  8
1
  6
PHANTOM
 62
   135
370
    13
100
AcDbLine
 10
6167.159686
 20
5726.095697
 30
0.0
 11
6167.231483
 21
5726.095697
 31
0.0
  0
LINE
  5
94
330
1F
100
AcDbEntity
  8
1
  6
PHANTOM
 62
   135
370
    13
100
AcDbLine
 10
6160.231483
 20
5657.595697
 30
0.0
 11
6153.231483
 21
5664.595697
 31
0.0
  0
LINE
  5
95
330
1F
100
AcDbEntity
  8
1
  6
PHANTOM
 62
   135
370
    13
100
AcDbLine
 10
6160.231483
 20
6119.595697
 30
0.0
 11
6153.231483
 21
6112.595697
 31
0.0
  0
LINE
  5
96
330
1F
100
AcDbEntity
  8
1
  6
PHANTOM
 62
   135
370
    13
100
AcDbLine
 10
6167.159686
 20
6051.095697
 30
0.0
 11
6167.159686
 21
6106.095697
 31
0.0
  0
LINE
  5
97
330
1F
100
AcDbEntity
  8
1
  6
PHANTOM
 62
   135
370
    13
100
AcDbLine
 10
6167.159686
 20
5671.095697
 30
0.0
 11
6167.159686
 21
5726.095697
 31
0.0
  0
LINE
  5
98
330
1F
100
AcDbEntity
  8
1
  6
PHANTOM
 62
   135
370
    13
100
AcDbLine
 10
5783.531483
 20
6131.595697
 30
0.0
 11
5783.531483
 21
5645.595697
 31
0.0
  0
LINE
  5
99
330
1F
100
AcDbEntity
  8
1
  6
PHANTOM
 62
   135
370
    13
100
AcDbLine
 10
5793.731483
 20
5657.595697
 30
0.0
 11
5793.731483
 21
6119.595697
 31
0.0
  0
LINE
  5
9A
330
1F
100
AcDbEntity
  8
1
  6
PHANTOM
 62
   135
370
    13
100
AcDbLine
 10
6128.431483
 20
5973.595697
 30
0.0
 11
6119.431483
 21
5964.595697
 31
0.0
  0
LINE
  5
9B
330
1F
100
AcDbEntity
  8
1
  6
PHANTOM
 62
   135
370
    13
100
AcDbLine
 10
6119.431483
 20
5812.595697
 30
0.0
 11
6119.431483
 21
5964.595697
 31
0.0
  0
LINE
  5
9C
330
1F
100
AcDbEntity
  8
1
  6
PHANTOM
 62
   135
370
    13
100
AcDbLine
 10
6119.431483
 20
5812.595697
 30
0.0
 11
6128.431483
 21
5803.595697
 31
0.0
  0
LINE
  5
9D
330
1F
100
AcDbEntity
  8
1
  6
PHANTOM
 62
   135
370
    13
100
AcDbLine
 10
6128.431483
 20
5803.595697
 30
0.0
 11
6128.431483
 21
5723.595697
 31
0.0
  0
LINE
  5
9E
330
1F
100
AcDbEntity
  8
1
  6
PHANTOM
 62
   135
370
    13
100
AcDbLine
 10
6128.431483
 20
5723.595697
 30
0.0
 11
6119.431483
 21
5714.595697
 31
0.0
  0
LINE
  5
9F
330
1F
100
AcDbEntity
  8
1
  6
PHANTOM
 62
   135
370
    13
100
AcDbLine
 10
5807.731483
 20
5668.595697
 30
0.0
 11
5807.728625
 21
5668.595697
 31
0.0
  0
LINE
  5
A0
330
1F
100
AcDbEntity
  8
1
  6
PHANTOM
 62
   135
370
    13
100
AcDbLine
 10
5807.728625
 20
6108.595697
 30
0.0
 11
5807.731483
 21
6108.595697
 31
0.0
  0
LINE
  5
A1
330
1F
100
AcDbEntity
  8
1
  6
PHANTOM
 62
   135
370
    13
100
AcDbLine
 10
5807.728625
 20
5668.595697
 30
0.0
 11
5807.728625
 21
6108.595697
 31
0.0
  0
LINE
  5
A2
330
1F
100
AcDbEntity
  8
1
  6
PHANTOM
 62
   135
370
    13
100
AcDbLine
 10
5807.731483
 20
6112.595697
 30
0.0
 11
5807.731483
 21
6108.595697
 31
0.0
  0
LINE
  5
A3
330
1F
100
AcDbEntity
  8
1
  6
Continuous
 62
   155
370
    25
100
AcDbLine
 10
5825.085695
 20
5754.195697
 30
0.0
 11
5834.57727
 21
5754.195697
 31
0.0
  0
LINE
  5
A4
330
1F
100
AcDbEntity
  8
1
  6
Continuous
 62
   155
370
    25
100
AcDbLine
 10
5819.631483
 20
5769.141485
 30
0.0
 11
5819.631483
 21
5759.649909
 31
0.0
  0
LINE
  5
A5
330
1F
100
AcDbEntity
  8
1
  6
Continuous
 62
   155
370
    25
100
AcDbLine
 10
5834.57727
 20
5774.595697
 30
0.0
 11
5825.085695
 21
5774.595697
 31
0.0
  0
LINE
  5
A6
330
1F
100
AcDbEntity
  8
1
  6
Continuous
 62
   155
370
    25
100
AcDbLine
 10
5840.031483
 20
5759.649909
 30
0.0
 11
5840.031483
 21
5769.141485
 31
0.0
  0
LINE
  5
A7
330
1F
100
AcDbEntity
  8
1
  6
Continuous
 62
   155
370
    25
100
AcDbLine
 10
5834.57727
 20
6002.595697
 30
0.0
 11
5825.085695
 21
6002.595697
 31
0.0
  0
LINE
  5
A8
330
1F
100
AcDbEntity
  8
1
  6
Continuous
 62
   155
370
    25
100
AcDbLine
 10
5819.631483
 20
6008.049909
 30
0.0
 11
5819.631483
 21
6017.541485
 31
0.0
  0
LINE
  5
A9
330
1F
100
AcDbEntity
  8
1
  6
Continuous
 62
   155
370
    25
100
AcDbLine
 10
6178.631483
 20
5645.595697
 30
0.0
 11
6178.631483
 21
6131.595697
 31
0.0
  0
LINE
  5
AA
330
1F
100
AcDbEntity
  8
1
  6
PHANTOM
 62
   135
370
    13
100
AcDbLine
 10
5821.531483
 20
5714.595697
 30
0.0
 11
5812.531483
 21
5723.595697
 31
0.0
  0
LINE
  5
AB
330
1F
100
AcDbEntity
  8
1
  6
PHANTOM
 62
   135
370
    13
100
AcDbLine
 10
5812.531483
 20
5723.595697
 30
0.0
 11
5812.531483
 21
5803.595697
 31
0.0
  0
LINE
  5
AC
330
1F
100
AcDbEntity
  8
1
  6
PHANTOM
 62
   135
370
    13
100
AcDbLine
 10
5812.531483
 20
5803.595697
 30
0.0
 11
5821.531483
 21
5812.595697
 31
0.0
  0
LINE
  5
AD
330
1F
100
AcDbEntity
  8
1
  6
PHANTOM
 62
   135
370
    13
100
AcDbLine
 10
5821.531483
 20
5812.595697
 30
0.0
 11
5821.531483
 21
5964.595697
 31
0.0
  0
LINE
  5
AE
330
1F
100
AcDbEntity
  8
1
  6
PHANTOM
 62
   135
370
    13
100
AcDbLine
 10
5821.531483
 20
5964.595697
 30
0.0
 11
5812.531483
 21
5973.595697
 31
0.0
  0
LINE
  5
AF
330
1F
100
AcDbEntity
  8
1
  6
PHANTOM
 62
   135
370
    13
100
AcDbLine
 10
5812.531483
 20
5973.595697
 30
0.0
 11
5812.531483
 21
6053.595697
 31
0.0
  0
LINE
  5
B0
330
1F
100
AcDbEntity
  8
1
  6
PHANTOM
 62
   135
370
    13
100
AcDbLine
 10
5812.531483
 20
6053.595697
 30
0.0
 11
5821.531483
 21
6062.595697
 31
0.0
  0
LINE
  5
B1
330
1F
100
AcDbEntity
  8
1
  6
PHANTOM
 62
   135
370
    13
100
AcDbLine
 10
5821.531483
 20
6062.595697
 30
0.0
 11
5821.531483
 21
6108.595697
 31
0.0
  0
LINE
  5
B2
330
1F
100
AcDbEntity
  8
1
  6
PHANTOM
 62
   135
370
    13
100
AcDbLine
 10
6119.431483
 20
6062.595697
 30
0.0
 11
6119.431483
 21
6108.595697
 31
0.0
  0
LINE
  5
B3
330
1F
100
AcDbEntity
  8
1
  6
PHANTOM
 62
   135
370
    13
100
AcDbLine
 10
6119.431483
 20
6062.595697
 30
0.0
 11
6128.431483
 21
6053.595697
 31
0.0
  0
LINE
  5
B4
330
1F
100
AcDbEntity
  8
1
  6
PHANTOM
 62
   135
370
    13
100
AcDbLine
 10
6128.431483
 20
6053.595697
 30
0.0
 11
6128.431483
 21
5973.595697
 31
0.0
  0
LINE
  5
B5
330
1F
100
AcDbEntity
  8
1
  6
PHANTOM
 62
   135
370
    13
100
AcDbLine
 10
6172.028958
 20
6091.845697
 30
0.0
 11
6174.431378
 21
6091.845697
 31
0.0
  0
LINE
  5
B6
330
1F
100
AcDbEntity
  8
1
  6
PHANTOM
 62
   135
370
    13
100
AcDbLine
 10
6171.631483
 20
5685.345697
 30
0.0
 11
6172.028989
 21
5685.345697
 31
0.0
  0
LINE
  5
B7
330
1F
100
AcDbEntity
  8
1
  6
PHANTOM
 62
   135
370
    13
100
AcDbLine
 10
6172.028989
 20
5685.345697
 30
0.0
 11
6172.028989
 21
5671.095697
 31
0.0
  0
LINE
  5
B8
330
1F
100
AcDbEntity
  8
1
  6
PHANTOM
 62
   135
370
    13
100
AcDbLine
 10
6171.631483
 20
5711.845697
 30
0.0
 11
6172.028989
 21
5711.845697
 31
0.0
  0
LINE
  5
B9
330
1F
100
AcDbEntity
  8
1
  6
PHANTOM
 62
   135
370
    13
100
AcDbLine
 10
6172.028989
 20
5726.095697
 30
0.0
 11
6172.028989
 21
5711.845697
 31
0.0
  0
LINE
  5
BA
330
1F
100
AcDbEntity
  8
1
  6
PHANTOM
 62
   135
370
    13
100
AcDbLine
 10
6172.028989
 20
6091.845697
 30
0.0
 11
6172.028989
 21
6106.095697
 31
0.0
  0
LINE
  5
BB
330
1F
100
AcDbEntity
  8
1
  6
PHANTOM
 62
   135
370
    13
100
AcDbLine
 10
6171.631483
 20
6065.345697
 30
0.0
 11
6172.028989
 21
6065.345697
 31
0.0
  0
LINE
  5
BC
330
1F
100
AcDbEntity
  8
1
  6
PHANTOM
 62
   135
370
    13
100
AcDbLine
 10
6172.028989
 20
6051.095697
 30
0.0
 11
6172.028989
 21
6065.345697
 31
0.0
  0
LINE
  5
BD
330
1F
100
AcDbEntity
  8
1
  6
PHANTOM
 62
   135
370
    13
100
AcDbLine
 10
6167.981483
 20
5685.345697
 30
0.0
 11
6171.631483
 21
5685.345697
 31
0.0
  0
LINE
  5
BE
330
1F
100
AcDbEntity
  8
1
  6
PHANTOM
 62
   135
370
    13
100
AcDbLine
 10
6171.631483
 20
5685.345697
 30
0.0
 11
6171.631483
 21
5671.095697
 31
0.0
  0
LINE
  5
BF
330
1F
100
AcDbEntity
  8
1
  6
PHANTOM
 62
   135
370
    13
100
AcDbLine
 10
6167.981483
 20
5711.845697
 30
0.0
 11
6171.631483
 21
5711.845697
 31
0.0
  0
LINE
  5
C0
330
1F
100
AcDbEntity
  8
1
  6
PHANTOM
 62
   135
370
    13
100
AcDbLine
 10
6171.631483
 20
5726.095697
 30
0.0
 11
6171.631483
 21
5711.845697
 31
0.0
  0
LINE
  5
C1
330
1F
100
AcDbEntity
  8
1
  6
PHANTOM
 62
   135
370
    13
100
AcDbLine
 10
6167.981483
 20
6091.845697
 30
0.0
 11
6171.631483
 21
6091.845697
 31
0.0
  0
LINE
  5
C2
330
1F
100
AcDbEntity
  8
1
  6
PHANTOM
 62
   135
370
    13
100
AcDbLine
 10
6171.631483
 20
6091.845697
 30
0.0
 11
6171.631483
 21
6106.095697
 31
0.0
  0
LINE
  5
C3
330
1F
100
AcDbEntity
  8
1
  6
PHANTOM
 62
   135
370
    13
100
AcDbLine
 10
6167.981483
 20
6065.345697
 30
0.0
 11
6171.631483
 21
6065.345697
 31
0.0
  0
LINE
  5
C4
330
1F
100
AcDbEntity
  8
1
  6
PHANTOM
 62
   135
370
    13
100
AcDbLine
 10
6171.631483
 20
6051.095697
 30
0.0
 11
6171.631483
 21
6065.345697
 31
0.0
  0
LINE
  5
C5
330
1F
100
AcDbEntity
  8
1
  6
PHANTOM
 62
   135
370
    13
100
AcDbLine
 10
6174.431483
 20
5685.345697
 30
0.0
 11
6177.25991
 21
5685.345697
 31
0.0
  0
LINE
  5
C6
330
1F
100
AcDbEntity
  8
1
  6
PHANTOM
 62
   135
370
    13
100
AcDbLine
 10
6174.431483
 20
6065.345697
 30
0.0
 11
6177.25991
 21
6065.345697
 31
0.0
  0
LINE
  5
C7
330
1F
100
AcDbEntity
  8
1
  6
PHANTOM
 62
   135
370
    13
100
AcDbLine
 10
6174.431483
 20
6091.845697
 30
0.0
 11
6177.25991
 21
6091.845697
 31
0.0
  0
LINE
  5
C8
330
1F
100
AcDbEntity
  8
1
  6
PHANTOM
 62
   135
370
    13
100
AcDbLine
 10
6174.431483
 20
5711.845697
 30
0.0
 11
6177.25991
 21
5711.845697
 31
0.0
  0
LINE
  5
C9
330
1F
100
AcDbEntity
  8
1
  6
PHANTOM
 62
   135
370
    13
100
AcDbLine
 10
5808.531483
 20
6108.595697
 30
0.0
 11
5808.531483
 21
5668.595697
 31
0.0
  0
LINE
  5
CA
330
1F
100
AcDbEntity
  8
1
  6
PHANTOM
 62
   135
370
    13
100
AcDbLine
 10
5809.731483
 20
6108.595697
 30
0.0
 11
5809.731483
 21
5668.595697
 31
0.0
  0
LINE
  5
CB
330
1F
100
AcDbEntity
  8
1
  6
Continuous
 62
   155
370
    13
100
AcDbLine
 10
6174.431483
 20
6135.795697
 30
0.0
 11
5786.531483
 21
6135.795697
 31
0.0
  0
LINE
  5
CC
330
1F
100
AcDbEntity
  8
1
  6
PHANTOM
 62
   135
370
    13
100
AcDbLine
 10
6131.231483
 20
5668.595697
 30
0.0
 11
6131.231483
 21
6108.595697
 31
0.0
  0
LINE
  5
CD
330
1F
100
AcDbEntity
  8
1
  6
PHANTOM
 62
   135
370
    13
100
AcDbLine
 10
6132.431483
 20
5668.595697
 30
0.0
 11
6132.431483
 21
6108.595697
 31
0.0
  0
LINE
  5
CE
330
1F
100
AcDbEntity
  8
1
  6
PHANTOM
 62
   135
370
    13
100
AcDbLine
 10
6169.981483
 20
5685.345697
 30
0.0
 11
6169.981483
 21
5671.095697
 31
0.0
  0
LINE
  5
CF
330
1F
100
AcDbEntity
  8
1
  6
PHANTOM
 62
   135
370
    13
100
AcDbLine
 10
6169.981483
 20
5726.095697
 30
0.0
 11
6169.981483
 21
5711.845697
 31
0.0
  0
LINE
  5
D0
330
1F
100
AcDbEntity
  8
1
  6
PHANTOM
 62
   135
370
    13
100
AcDbLine
 10
6169.981483
 20
6065.345697
 30
0.0
 11
6169.981483
 21
6051.095697
 31
0.0
  0
LINE
  5
D1
330
1F
100
AcDbEntity
  8
1
  6
PHANTOM
 62
   135
370
    13
100
AcDbLine
 10
6169.981483
 20
6106.095697
 30
0.0
 11
6169.981483
 21
6091.845697
 31
0.0
  0
LINE
  5
D2
330
1F
100
AcDbEntity
  8
1
  6
PHANTOM
 62
   135
370
    13
100
AcDbLine
 10
6167.981483
 20
5685.345697
 30
0.0
 11
6167.981483
 21
5671.095697
 31
0.0
  0
LINE
  5
D3
330
1F
100
AcDbEntity
  8
1
  6
PHANTOM
 62
   135
370
    13
100
AcDbLine
 10
6167.981483
 20
5726.095697
 30
0.0
 11
6167.981483
 21
5711.845697
 31
0.0
  0
LINE
  5
D4
330
1F
100
AcDbEntity
  8
1
  6
PHANTOM
 62
   135
370
    13
100
AcDbLine
 10
6167.981483
 20
6106.095697
 30
0.0
 11
6167.981483
 21
6091.845697
 31
0.0
  0
LINE
  5
D5
330
1F
100
AcDbEntity
  8
1
  6
PHANTOM
 62
   135
370
    13
100
AcDbLine
 10
6167.981483
 20
6065.345697
 30
0.0
 11
6167.981483
 21
6051.095697
 31
0.0
  0
LINE
  5
D6
330
1F
100
AcDbEntity
  8
1
  6
PHANTOM
 62
   135
370
    13
100
AcDbLine
 10
6175.431483
 20
5711.845697
 30
0.0
 11
6175.431483
 21
5726.095697
 31
0.0
  0
LINE
  5
D7
330
1F
100
AcDbEntity
  8
1
  6
PHANTOM
 62
   135
370
    13
100
AcDbLine
 10
6175.431483
 20
6091.845697
 30
0.0
 11
6175.431483
 21
6106.095697
 31
0.0
  0
LINE
  5
D8
330
1F
100
AcDbEntity
  8
1
  6
PHANTOM
 62
   135
370
    13
100
AcDbLine
 10
6175.431483
 20
6051.095697
 30
0.0
 11
6175.431483
 21
6065.345697
 31
0.0
  0
LINE
  5
D9
330
1F
100
AcDbEntity
  8
1
  6
PHANTOM
 62
   135
370
    13
100
AcDbLine
 10
6175.431483
 20
5671.095697
 30
0.0
 11
6175.431483
 21
5685.345697
 31
0.0
  0
LINE
  5
DA
330
1F
100
AcDbEntity
  8
1
  6
PHANTOM
 62
   135
370
    13
100
AcDbLine
 10
5821.531483
 20
6108.595697
 30
0.0
 11
5811.331483
 21
6108.595697
 31
0.0
  0
LINE
  5
DB
330
1F
100
AcDbEntity
  8
1
  6
PHANTOM
 62
   135
370
    13
100
AcDbLine
 10
5821.531483
 20
5668.595697
 30
0.0
 11
5811.331483
 21
5668.595697
 31
0.0
  0
LINE
  5
DC
330
1F
100
AcDbEntity
  8
1
  6
PHANTOM
 62
   135
370
    13
100
AcDbLine
 10
5821.531483
 20
5668.595697
 30
0.0
 11
5821.531483
 21
5714.595697
 31
0.0
  0
LINE
  5
DD
330
1F
100
AcDbEntity
  8
1
  6
PHANTOM
 62
   135
370
    13
100
AcDbLine
 10
6129.631483
 20
6108.595697
 30
0.0
 11
6119.431483
 21
6108.595697
 31
0.0
  0
LINE
  5
DE
330
1F
100
AcDbEntity
  8
1
  6
PHANTOM
 62
   135
370
    13
100
AcDbLine
 10
6129.631483
 20
5668.595697
 30
0.0
 11
6119.431483
 21
5668.595697
 31
0.0
  0
LINE
  5
DF
330
1F
100
AcDbEntity
  8
1
  6
PHANTOM
 62
   135
370
    13
100
AcDbLine
 10
6119.431483
 20
5668.595697
 30
0.0
 11
6119.431483
 21
5714.595697
 31
0.0
  0
LINE
  5
E0
330
1F
100
AcDbEntity
  8
1
  6
PHANTOM
 62
   135
370
    13
100
AcDbLine
 10
5809.731483
 20
6108.595697
 30
0.0
 11
5811.331483
 21
6108.595697
 31
0.0
  0
LINE
  5
E1
330
1F
100
AcDbEntity
  8
1
  6
PHANTOM
 62
   135
370
    13
100
AcDbLine
 10
5811.331483
 20
5668.595697
 30
0.0
 11
5809.731483
 21
5668.595697
 31
0.0
  0
LINE
  5
E2
330
1F
100
AcDbEntity
  8
1
  6
PHANTOM
 62
   135
370
    13
100
AcDbLine
 10
6129.631483
 20
6108.595697
 30
0.0
 11
6131.231483
 21
6108.595697
 31
0.0
  0
LINE
  5
E3
330
1F
100
AcDbEntity
  8
1
  6
PHANTOM
 62
   135
370
    13
100
AcDbLine
 10
6131.231483
 20
5668.595697
 30
0.0
 11
6129.631483
 21
5668.595697
 31
0.0
  0
LINE
  5
E4
330
1F
100
AcDbEntity
  8
1
  6
Continuous
 62
   155
370
    13
100
AcDbLine
 10
6174.431483
 20
5302.030261
 30
0.0
 11
5786.531483
 21
5302.030261
 31
0.0
  0
LINE
  5
E5
330
1F
100
AcDbEntity
  8
1
  6
PHANTOM
 62
   135
370
    13
100
AcDbLine
 10
6175.42813
 20
5305.112078
 30
0.0
 11
6175.072934
 21
5309.438894
 31
0.0
  0
LINE
  5
E6
330
1F
100
AcDbEntity
  8
1
  6
PHANTOM
 62
   135
370
    13
100
AcDbLine
 10
6131.231483
 20
5302.030261
 30
0.0
 11
6131.231483
 21
5310.230261
 31
0.0
  0
LINE
  5
E7
330
1F
100
AcDbEntity
  8
1
  6
PHANTOM
 62
   135
370
    13
100
AcDbLine
 10
6119.431483
 20
5313.030261
 30
0.0
 11
6129.631483
 21
5313.030261
 31
0.0
  0
LINE
  5
E8
330
1F
100
AcDbEntity
  8
1
  6
PHANTOM
 62
   135
370
    13
100
AcDbLine
 10
6132.431483
 20
5310.230261
 30
0.0
 11
6132.431483
 21
5304.830261
 31
0.0
  0
LINE
  5
E9
330
1F
100
AcDbEntity
  8
1
  6
PHANTOM
 62
   135
370
    13
100
AcDbLine
 10
6119.431483
 20
5311.830261
 30
0.0
 11
6119.431483
 21
5313.030261
 31
0.0
  0
LINE
  5
EA
330
1F
100
AcDbEntity
  8
1
  6
PHANTOM
 62
   135
370
    13
100
AcDbLine
 10
6129.631483
 20
5311.830261
 30
0.0
 11
6119.431483
 21
5311.830261
 31
0.0
  0
LINE
  5
EB
330
1F
100
AcDbEntity
  8
1
  6
PHANTOM
 62
   135
370
    13
100
AcDbLine
 10
6145.231483
 20
5303.230261
 30
0.0
 11
6145.231483
 21
5302.030261
 31
0.0
  0
LINE
  5
EC
330
1F
100
AcDbEntity
  8
1
  6
PHANTOM
 62
   135
370
    13
100
AcDbLine
 10
6134.031483
 20
5303.230261
 30
0.0
 11
6145.231483
 21
5303.230261
 31
0.0
  0
LINE
  5
ED
330
1F
100
AcDbEntity
  8
1
  6
PHANTOM
 62
   135
370
    13
100
AcDbLine
 10
5811.331483
 20
5313.030261
 30
0.0
 11
5821.531483
 21
5313.030261
 31
0.0
  0
LINE
  5
EE
330
1F
100
AcDbEntity
  8
1
  6
PHANTOM
 62
   135
370
    13
100
AcDbLine
 10
5808.531483
 20
5304.617548
 30
0.0
 11
5808.531483
 21
5310.230261
 31
0.0
  0
LINE
  5
EF
330
1F
100
AcDbEntity
  8
1
  6
PHANTOM
 62
   135
370
    13
100
AcDbLine
 10
5809.731483
 20
5310.230261
 30
0.0
 11
5809.731483
 21
5302.030261
 31
0.0
  0
LINE
  5
F0
330
1F
100
AcDbEntity
  8
1
  6
PHANTOM
 62
   135
370
    13
100
AcDbLine
 10
5821.531483
 20
5311.830261
 30
0.0
 11
5811.331483
 21
5311.830261
 31
0.0
  0
LINE
  5
F1
330
1F
100
AcDbEntity
  8
1
  6
PHANTOM
 62
   135
370
    13
100
AcDbLine
 10
5821.531483
 20
5313.030261
 30
0.0
 11
5821.531483
 21
5311.830261
 31
0.0
  0
LINE
  5
F2
330
1F
100
AcDbEntity
  8
1
  6
PHANTOM
 62
   135
370
    13
100
AcDbLine
 10
6153.231483
 20
5303.030261
 30
0.0
 11
6153.231483
 21
5302.030261
 31
0.0
  0
LINE
  5
F3
330
1F
100
AcDbEntity
  8
1
  6
PHANTOM
 62
   135
370
    13
100
AcDbLine
 10
5807.731483
 20
5303.030261
 30
0.0
 11
5807.731483
 21
5302.030261
 31
0.0
  0
LINE
  5
F4
330
1F
100
AcDbEntity
  8
1
  6
PHANTOM
 62
   135
370
    13
100
AcDbLine
 10
6174.431483
 20
5302.030261
 30
0.0
 11
6175.831483
 21
5302.030261
 31
0.0
  0
LINE
  5
F5
330
1F
100
AcDbEntity
  8
1
  6
PHANTOM
 62
   135
370
    13
100
AcDbLine
 10
5785.131483
 20
5302.030261
 30
0.0
 11
5786.531483
 21
5302.030261
 31
0.0
  0
LINE
  5
F6
330
1F
100
AcDbEntity
  8
1
  6
Continuous
 62
   155
370
    25
100
AcDbLine
 10
6109.431483
 20
5317.030261
 30
0.0
 11
6115.431483
 21
5317.030261
 31
0.0
  0
LINE
  5
F7
330
1F
100
AcDbEntity
  8
1
  6
Continuous
 62
   155
370
    25
100
AcDbLine
 10
6178.631483
 20
5315.330261
 30
0.0
 11
6174.431483
 21
5315.330261
 31
0.0
  0
LINE
  5
F8
330
1F
100
AcDbEntity
  8
1
  6
PHANTOM
 62
   135
370
    13
100
AcDbLine
 10
5812.531483
 20
5313.030261
 30
0.0
 11
5812.531483
 21
5311.830261
 31
0.0
  0
LINE
  5
F9
330
1F
100
AcDbEntity
  8
1
  6
PHANTOM
 62
   135
370
    13
100
AcDbLine
 10
6128.431483
 20
5313.030261
 30
0.0
 11
6128.431483
 21
5311.830261
 31
0.0
  0
LINE
  5
FA
330
1F
100
AcDbEntity
  8
1
  6
PHANTOM
 62
   135
370
    13
100
AcDbLine
 10
5819.631483
 20
5302.030261
 30
0.0
 11
5819.631483
 21
5300.830261
 31
0.0
  0
LINE
  5
FB
330
1F
100
AcDbEntity
  8
1
  6
PHANTOM
 62
   135
370
    13
100
AcDbLine
 10
5840.031483
 20
5302.030261
 30
0.0
 11
5840.031483
 21
5300.830261
 31
0.0
  0
LINE
  5
FC
330
1F
100
AcDbEntity
  8
1
  6
PHANTOM
 62
   135
370
    13
100
AcDbLine
 10
5834.57727
 20
5302.030261
 30
0.0
 11
5834.57727
 21
5300.830261
 31
0.0
  0
LINE
  5
FD
330
1F
100
AcDbEntity
  8
1
  6
PHANTOM
 62
   135
370
    13
100
AcDbLine
 10
5825.085695
 20
5300.830261
 30
0.0
 11
5825.085695
 21
5302.030261
 31
0.0
  0
LINE
  5
FE
330
1F
100
AcDbEntity
  8
1
  6
PHANTOM
 62
   135
370
    13
100
AcDbLine
 10
6174.431483
 20
5304.030261
 30
0.0
 11
6177.25991
 21
5304.030261
 31
0.0
  0
LINE
  5
FF
330
1F
100
AcDbEntity
  8
1
  6
PHANTOM
 62
   135
370
    13
100
AcDbLine
 10
6167.159686
 20
5304.030261
 30
0.0
 11
6174.431483
 21
5304.030261
 31
0.0
  0
LINE
  5
100
330
1F
100
AcDbEntity
  8
1
  6
PHANTOM
 62
   135
370
    13
100
AcDbLine
 10
6177.063866
 20
5309.630261
 30
0.0
 11
6177.431483
 21
5305.464814
 31
0.0
  0
LINE
  5
101
330
1F
100
AcDbEntity
  8
1
  6
PHANTOM
 62
   135
370
    13
100
AcDbLine
 10
6172.028989
 20
5306.730261
 30
0.0
 11
6171.631483
 21
5304.77016
 31
0.0
  0
LINE
  5
102
330
1F
100
AcDbEntity
  8
1
  6
Continuous
 62
   155
370
    13
100
AcDbLine
 10
6177.431483
 20
5303.630261
 30
0.0
 11
6177.431483
 21
5315.330261
 31
0.0
  0
LINE
  5
103
330
1F
100
AcDbEntity
  8
1
  6
PHANTOM
 62
   135
370
    13
100
AcDbLine
 10
5783.531483
 20
5303.630261
 30
0.0
 11
5783.531483
 21
5315.330261
 31
0.0
  0
LINE
  5
104
330
1F
100
AcDbEntity
  8
1
  6
PHANTOM
 62
   135
370
    13
100
AcDbLine
 10
5793.731483
 20
5303.030261
 30
0.0
 11
5793.731483
 21
5302.030261
 31
0.0
  0
LINE
  5
105
330
1F
100
AcDbEntity
  8
1
  6
PHANTOM
 62
   135
370
    13
100
AcDbLine
 10
6167.231483
 20
5302.030261
 30
0.0
 11
6167.231483
 21
5303.030261
 31
0.0
  0
LINE
  5
106
330
1F
100
AcDbEntity
  8
1
  6
PHANTOM
 62
   135
370
    13
100
AcDbLine
 10
5818.281483
 20
5311.830261
 30
0.0
 11
5818.281483
 21
5313.030261
 31
0.0
  0
LINE
  5
107
330
1F
100
AcDbEntity
  8
1
  6
PHANTOM
 62
   135
370
    13
100
AcDbLine
 10
5814.781483
 20
5313.030261
 30
0.0
 11
5814.781483
 21
5311.830261
 31
0.0
  0
LINE
  5
108
330
1F
100
AcDbEntity
  8
1
  6
PHANTOM
 62
   135
370
    13
100
AcDbLine
 10
6126.181483
 20
5311.830261
 30
0.0
 11
6126.181483
 21
5313.030261
 31
0.0
  0
LINE
  5
109
330
1F
100
AcDbEntity
  8
1
  6
PHANTOM
 62
   135
370
    13
100
AcDbLine
 10
6122.681483
 20
5313.030261
 30
0.0
 11
6122.681483
 21
5311.830261
 31
0.0
  0
LINE
  5
10A
330
1F
100
AcDbEntity
  8
1
  6
PHANTOM
 62
   135
370
    13
100
AcDbLine
 10
6160.231483
 20
5310.030261
 30
0.0
 11
5800.731483
 21
5310.030261
 31
0.0
  0
LINE
  5
10B
330
1F
100
AcDbEntity
  8
1
  6
Continuous
 62
   155
370
    25
100
AcDbLine
 10
6109.431483
 20
5317.030261
 30
0.0
 11
6109.431483
 21
5315.330105
 31
0.0
  0
LINE
  5
10C
330
1F
100
AcDbEntity
  8
1
  6
PHANTOM
 62
   135
370
    13
100
AcDbLine
 10
6109.431483
 20
5315.330105
 30
0.0
 11
6109.431483
 21
5302.030261
 31
0.0
  0
LINE
  5
10D
330
1F
100
AcDbEntity
  8
1
  6
PHANTOM
 62
   135
370
    13
100
AcDbLine
 10
6115.431483
 20
5302.030261
 30
0.0
 11
6115.431483
 21
5315.330105
 31
0.0
  0
LINE
  5
10E
330
1F
100
AcDbEntity
  8
1
  6
Continuous
 62
   155
370
    25
100
AcDbLine
 10
6115.431483
 20
5315.330105
 30
0.0
 11
6115.431483
 21
5317.030261
 31
0.0
  0
LINE
  5
10F
330
1F
100
AcDbEntity
  8
1
  6
Continuous
 62
   155
370
    25
100
AcDbLine
 10
6178.631483
 20
5303.630261
 30
0.0
 11
6178.631483
 21
5315.330261
 31
0.0
  0
LINE
  5
110
330
1F
100
AcDbEntity
  8
1
  6
Continuous
 62
   155
370
    25
100
AcDbLine
 10
6174.431483
 20
5300.830261
 30
0.0
 11
6175.831483
 21
5300.830261
 31
0.0
  0
LINE
  5
111
330
1F
100
AcDbEntity
  8
1
  6
Continuous
 62
   155
370
    25
100
AcDbLine
 10
5786.531483
 20
5300.830261
 30
0.0
 11
6174.431483
 21
5300.830261
 31
0.0
  0
LINE
  5
112
330
1F
100
AcDbEntity
  8
1
  6
Continuous
 62
   155
370
    25
100
AcDbLine
 10
5785.131483
 20
5300.830261
 30
0.0
 11
5786.531483
 21
5300.830261
 31
0.0
  0
LINE
  5
113
330
1F
100
AcDbEntity
  8
1
  6
Continuous
 62
   155
370
    25
100
AcDbLine
 10
5786.531483
 20
5315.330261
 30
0.0
 11
5782.331483
 21
5315.330261
 31
0.0
  0
LINE
  5
114
330
1F
100
AcDbEntity
  8
1
  6
Continuous
 62
   155
370
    25
100
AcDbLine
 10
5782.331483
 20
5303.630261
 30
0.0
 11
5782.331483
 21
5315.330261
 31
0.0
  0
LINE
  5
115
330
1F
100
AcDbEntity
  8
1
  6
Continuous
 62
   155
370
    25
100
AcDbLine
 10
6174.431483
 20
5315.330261
 30
0.0
 11
5786.531483
 21
5315.330261
 31
0.0
  0
LINE
  5
116
330
1F
100
AcDbEntity
  8
1
  6
PHANTOM
 62
   135
370
    13
100
AcDbLine
 10
6492.486875
 20
5671.095697
 30
0.0
 11
6491.486875
 21
5671.095697
 31
0.0
  0
LINE
  5
117
330
1F
100
AcDbEntity
  8
1
  6
PHANTOM
 62
   135
370
    13
100
AcDbLine
 10
6492.486875
 20
5726.095697
 30
0.0
 11
6491.486875
 21
5726.095697
 31
0.0
  0
LINE
  5
118
330
1F
100
AcDbEntity
  8
1
  6
PHANTOM
 62
   135
370
    13
100
AcDbLine
 10
6492.486875
 20
6051.095697
 30
0.0
 11
6491.486875
 21
6051.095697
 31
0.0
  0
LINE
  5
119
330
1F
100
AcDbEntity
  8
1
  6
PHANTOM
 62
   135
370
    13
100
AcDbLine
 10
6492.486875
 20
6106.095697
 30
0.0
 11
6491.486875
 21
6106.095697
 31
0.0
  0
LINE
  5
11A
330
1F
100
AcDbEntity
  8
1
  6
PHANTOM
 62
   135
370
    13
100
AcDbLine
 10
6490.486875
 20
6106.095697
 30
0.0
 11
6491.486875
 21
6106.095697
 31
0.0
  0
LINE
  5
11B
330
1F
100
AcDbEntity
  8
1
  6
PHANTOM
 62
   135
370
    13
100
AcDbLine
 10
6490.486875
 20
6051.095697
 30
0.0
 11
6490.486875
 21
6106.095697
 31
0.0
  0
LINE
  5
11C
330
1F
100
AcDbEntity
  8
1
  6
PHANTOM
 62
   135
370
    13
100
AcDbLine
 10
6491.486875
 20
6051.095697
 30
0.0
 11
6490.486875
 21
6051.095697
 31
0.0
  0
LINE
  5
11D
330
1F
100
AcDbEntity
  8
1
  6
PHANTOM
 62
   135
370
    13
100
AcDbLine
 10
6490.486875
 20
5726.095697
 30
0.0
 11
6491.486875
 21
5726.095697
 31
0.0
  0
LINE
  5
11E
330
1F
100
AcDbEntity
  8
1
  6
PHANTOM
 62
   135
370
    13
100
AcDbLine
 10
6490.486875
 20
5671.095697
 30
0.0
 11
6490.486875
 21
5726.095697
 31
0.0
  0
LINE
  5
11F
330
1F
100
AcDbEntity
  8
1
  6
PHANTOM
 62
   135
370
    13
100
AcDbLine
 10
6491.486875
 20
5671.095697
 30
0.0
 11
6490.486875
 21
5671.095697
 31
0.0
  0
LINE
  5
120
330
1F
100
AcDbEntity
  8
1
  6
PHANTOM
 62
   135
370
    13
100
AcDbLine
 10
6489.899588
 20
5668.595697
 30
0.0
 11
6484.286875
 21
5668.595697
 31
0.0
  0
LINE
  5
121
330
1F
100
AcDbEntity
  8
1
  6
PHANTOM
 62
   135
370
    13
100
AcDbLine
 10
6489.899588
 20
6108.595697
 30
0.0
 11
6484.286875
 21
6108.595697
 31
0.0
  0
LINE
  5
122
330
1F
100
AcDbEntity
  8
1
  6
PHANTOM
 62
   135
370
    13
100
AcDbLine
 10
6484.286875
 20
5668.595697
 30
0.0
 11
6481.486875
 21
5668.595697
 31
0.0
  0
LINE
  5
123
330
1F
100
AcDbEntity
  8
1
  6
PHANTOM
 62
   135
370
    13
100
AcDbLine
 10
6481.486875
 20
6108.595697
 30
0.0
 11
6484.286875
 21
6108.595697
 31
0.0
  0
LINE
  5
124
330
1F
100
AcDbEntity
  8
1
  6
PHANTOM
 62
   135
370
    13
100
AcDbLine
 10
6491.286875
 20
5668.595697
 30
0.0
 11
6489.899588
 21
5668.595697
 31
0.0
  0
LINE
  5
125
330
1F
100
AcDbEntity
  8
1
  6
PHANTOM
 62
   135
370
    13
100
AcDbLine
 10
6489.899588
 20
6108.595697
 30
0.0
 11
6491.286875
 21
6108.595697
 31
0.0
  0
LINE
  5
126
330
1F
100
AcDbEntity
  8
1
  6
PHANTOM
 62
   135
370
    13
100
AcDbLine
 10
6493.686875
 20
6022.995697
 30
0.0
 11
6492.486875
 21
6022.995697
 31
0.0
  0
LINE
  5
127
330
1F
100
AcDbEntity
  8
1
  6
PHANTOM
 62
   135
370
    13
100
AcDbLine
 10
6492.486875
 20
6002.595697
 30
0.0
 11
6493.686875
 21
6002.595697
 31
0.0
  0
LINE
  5
128
330
1F
100
AcDbEntity
  8
1
  6
PHANTOM
 62
   135
370
    13
100
AcDbLine
 10
6493.686875
 20
6008.049909
 30
0.0
 11
6492.486875
 21
6008.049909
 31
0.0
  0
LINE
  5
129
330
1F
100
AcDbEntity
  8
1
  6
PHANTOM
 62
   135
370
    13
100
AcDbLine
 10
6492.486875
 20
6017.541485
 30
0.0
 11
6493.686875
 21
6017.541485
 31
0.0
  0
LINE
  5
12A
330
1F
100
AcDbEntity
  8
1
  6
PHANTOM
 62
   135
370
    13
100
AcDbLine
 10
6491.486875
 20
5664.595697
 30
0.0
 11
6492.486875
 21
5664.595697
 31
0.0
  0
LINE
  5
12B
330
1F
100
AcDbEntity
  8
1
  6
PHANTOM
 62
   135
370
    13
100
AcDbLine
 10
6491.486875
 20
6112.595697
 30
0.0
 11
6492.486875
 21
6112.595697
 31
0.0
  0
LINE
  5
12C
330
1F
100
AcDbEntity
  8
1
  6
PHANTOM
 62
   135
370
    13
100
AcDbLine
 10
6490.486875
 20
6051.095697
 30
0.0
 11
6489.746994
 21
6051.095697
 31
0.0
  0
LINE
  5
12D
330
1F
100
AcDbEntity
  8
1
  6
PHANTOM
 62
   135
370
    13
100
AcDbLine
 10
6489.746994
 20
6065.345697
 30
0.0
 11
6490.486875
 21
6065.345697
 31
0.0
  0
LINE
  5
12E
330
1F
100
AcDbEntity
  8
1
  6
PHANTOM
 62
   135
370
    13
100
AcDbLine
 10
6490.486875
 20
5726.095697
 30
0.0
 11
6489.746994
 21
5726.095697
 31
0.0
  0
LINE
  5
12F
330
1F
100
AcDbEntity
  8
1
  6
PHANTOM
 62
   135
370
    13
100
AcDbLine
 10
6489.746994
 20
5711.845697
 30
0.0
 11
6490.486875
 21
5711.845697
 31
0.0
  0
LINE
  5
130
330
1F
100
AcDbEntity
  8
1
  6
PHANTOM
 62
   135
370
    13
100
AcDbLine
 10
6490.486875
 20
5671.095697
 30
0.0
 11
6489.746994
 21
5671.095697
 31
0.0
  0
LINE
  5
131
330
1F
100
AcDbEntity
  8
1
  6
PHANTOM
 62
   135
370
    13
100
AcDbLine
 10
6489.746994
 20
5685.345697
 30
0.0
 11
6490.486875
 21
5685.345697
 31
0.0
  0
LINE
  5
132
330
1F
100
AcDbEntity
  8
1
  6
PHANTOM
 62
   135
370
    13
100
AcDbLine
 10
6490.486875
 20
6106.095697
 30
0.0
 11
6489.746994
 21
6106.095697
 31
0.0
  0
LINE
  5
133
330
1F
100
AcDbEntity
  8
1
  6
PHANTOM
 62
   135
370
    13
100
AcDbLine
 10
6489.746994
 20
6091.845697
 30
0.0
 11
6490.486875
 21
6091.845697
 31
0.0
  0
LINE
  5
134
330
1F
100
AcDbEntity
  8
1
  6
PHANTOM
 62
   135
370
    13
100
AcDbLine
 10
6489.486875
 20
6091.845697
 30
0.0
 11
6489.486875
 21
6106.095697
 31
0.0
  0
LINE
  5
135
330
1F
100
AcDbEntity
  8
1
  6
PHANTOM
 62
   135
370
    13
100
AcDbLine
 10
6489.486875
 20
6051.095697
 30
0.0
 11
6489.486875
 21
6065.345697
 31
0.0
  0
LINE
  5
136
330
1F
100
AcDbEntity
  8
1
  6
PHANTOM
 62
   135
370
    13
100
AcDbLine
 10
6487.786875
 20
6051.095697
 30
0.0
 11
6487.786875
 21
6065.345697
 31
0.0
  0
LINE
  5
137
330
1F
100
AcDbEntity
  8
1
  6
PHANTOM
 62
   135
370
    13
100
AcDbLine
 10
6487.786875
 20
5726.095697
 30
0.0
 11
6487.786875
 21
5711.845697
 31
0.0
  0
LINE
  5
138
330
1F
100
AcDbEntity
  8
1
  6
PHANTOM
 62
   135
370
    13
100
AcDbLine
 10
6487.786875
 20
6091.845697
 30
0.0
 11
6487.786875
 21
6106.095697
 31
0.0
  0
LINE
  5
139
330
1F
100
AcDbEntity
  8
1
  6
PHANTOM
 62
   135
370
    13
100
AcDbLine
 10
6487.786875
 20
5685.345697
 30
0.0
 11
6487.786875
 21
5671.095697
 31
0.0
  0
LINE
  5
13A
330
1F
100
AcDbEntity
  8
1
  6
PHANTOM
 62
   135
370
    13
100
AcDbLine
 10
6489.746976
 20
5726.095697
 30
0.0
 11
6480.736875
 21
5726.095697
 31
0.0
  0
LINE
  5
13B
330
1F
100
AcDbEntity
  8
1
  6
PHANTOM
 62
   135
370
    13
100
AcDbLine
 10
6480.736875
 20
5711.845697
 30
0.0
 11
6481.486886
 21
5711.845697
 31
0.0
  0
LINE
  5
13C
330
1F
100
AcDbEntity
  8
1
  6
PHANTOM
 62
   135
370
    13
100
AcDbLine
 10
6482.686777
 20
5711.845697
 30
0.0
 11
6489.746976
 21
5711.845697
 31
0.0
  0
LINE
  5
13D
330
1F
100
AcDbEntity
  8
1
  6
PHANTOM
 62
   135
370
    13
100
AcDbLine
 10
6489.746976
 20
5726.095697
 30
0.0
 11
6489.746976
 21
5711.845697
 31
0.0
  0
LINE
  5
13E
330
1F
100
AcDbEntity
  8
1
  6
PHANTOM
 62
   135
370
    13
100
AcDbLine
 10
6489.746976
 20
5671.095697
 30
0.0
 11
6480.736875
 21
5671.095697
 31
0.0
  0
LINE
  5
13F
330
1F
100
AcDbEntity
  8
1
  6
PHANTOM
 62
   135
370
    13
100
AcDbLine
 10
6489.746976
 20
5685.345697
 30
0.0
 11
6489.746976
 21
5671.095697
 31
0.0
  0
LINE
  5
140
330
1F
100
AcDbEntity
  8
1
  6
PHANTOM
 62
   135
370
    13
100
AcDbLine
 10
6480.736875
 20
5685.345697
 30
0.0
 11
6489.746976
 21
5685.345697
 31
0.0
  0
LINE
  5
141
330
1F
100
AcDbEntity
  8
1
  6
PHANTOM
 62
   135
370
    13
100
AcDbLine
 10
6489.746976
 20
6051.095697
 30
0.0
 11
6480.736875
 21
6051.095697
 31
0.0
  0
LINE
  5
142
330
1F
100
AcDbEntity
  8
1
  6
PHANTOM
 62
   135
370
    13
100
AcDbLine
 10
6480.736875
 20
6065.345697
 30
0.0
 11
6481.486886
 21
6065.345697
 31
0.0
  0
LINE
  5
143
330
1F
100
AcDbEntity
  8
1
  6
PHANTOM
 62
   135
370
    13
100
AcDbLine
 10
6482.686777
 20
6065.345697
 30
0.0
 11
6489.746976
 21
6065.345697
 31
0.0
  0
LINE
  5
144
330
1F
100
AcDbEntity
  8
1
  6
PHANTOM
 62
   135
370
    13
100
AcDbLine
 10
6489.746976
 20
6051.095697
 30
0.0
 11
6489.746976
 21
6065.345697
 31
0.0
  0
LINE
  5
145
330
1F
100
AcDbEntity
  8
1
  6
PHANTOM
 62
   135
370
    13
100
AcDbLine
 10
6489.746976
 20
6106.095697
 30
0.0
 11
6480.736875
 21
6106.095697
 31
0.0
  0
LINE
  5
146
330
1F
100
AcDbEntity
  8
1
  6
PHANTOM
 62
   135
370
    13
100
AcDbLine
 10
6480.736875
 20
6091.845697
 30
0.0
 11
6489.746976
 21
6091.845697
 31
0.0
  0
LINE
  5
147
330
1F
100
AcDbEntity
  8
1
  6
PHANTOM
 62
   135
370
    13
100
AcDbLine
 10
6489.746976
 20
6091.845697
 30
0.0
 11
6489.746976
 21
6106.095697
 31
0.0
  0
LINE
  5
148
330
1F
100
AcDbEntity
  8
1
  6
PHANTOM
 62
   135
370
    13
100
AcDbLine
 10
6492.486875
 20
6131.595697
 30
0.0
 11
6492.486875
 21
6132.995697
 31
0.0
  0
LINE
  5
149
330
1F
100
AcDbEntity
  8
1
  6
PHANTOM
 62
   135
370
    13
100
AcDbLine
 10
6492.486875
 20
5644.195697
 30
0.0
 11
6492.486875
 21
5645.595697
 31
0.0
  0
LINE
  5
14A
330
1F
100
AcDbEntity
  8
1
  6
Continuous
 62
   155
370
    25
100
AcDbLine
 10
6477.486875
 20
5735.595697
 30
0.0
 11
6477.486875
 21
5732.595697
 31
0.0
  0
LINE
  5
14B
330
1F
100
AcDbEntity
  8
1
  6
Continuous
 62
   155
370
    25
100
AcDbLine
 10
6477.486875
 20
5732.595697
 30
0.0
 11
6477.486875
 21
5729.595697
 31
0.0
  0
LINE
  5
14C
330
1F
100
AcDbEntity
  8
1
  6
Continuous
 62
   155
370
    25
100
AcDbLine
 10
6479.186875
 20
6135.795697
 30
0.0
 11
6479.186875
 21
6131.595697
 31
0.0
  0
LINE
  5
14D
330
1F
100
AcDbEntity
  8
1
  6
Continuous
 62
   155
370
    25
100
AcDbLine
 10
6493.686875
 20
5644.195697
 30
0.0
 11
6493.686875
 21
5645.595697
 31
0.0
  0
LINE
  5
14E
330
1F
100
AcDbEntity
  8
1
  6
Continuous
 62
   155
370
    25
100
AcDbLine
 10
6479.186875
 20
6131.595697
 30
0.0
 11
6479.186875
 21
5645.595697
 31
0.0
  0
LINE
  5
14F
330
1F
100
AcDbEntity
  8
1
  6
Continuous
 62
   155
370
    25
100
AcDbLine
 10
6479.186875
 20
5645.595697
 30
0.0
 11
6479.186875
 21
5641.395697
 31
0.0
  0
LINE
  5
150
330
1F
100
AcDbEntity
  8
1
  6
Continuous
 62
   155
370
    25
100
AcDbLine
 10
6490.886875
 20
5641.395697
 30
0.0
 11
6479.186875
 21
5641.395697
 31
0.0
  0
LINE
  5
151
330
1F
100
AcDbEntity
  8
1
  6
Continuous
 62
   155
370
    25
100
AcDbLine
 10
6493.686875
 20
6131.595697
 30
0.0
 11
6493.686875
 21
6132.995697
 31
0.0
  0
LINE
  5
152
330
1F
100
AcDbEntity
  8
1
  6
Continuous
 62
   155
370
    13
100
AcDbLine
 10
6493.686875
 20
6131.595697
 30
0.0
 11
6493.686875
 21
5645.595697
 31
0.0
  0
LINE
  5
153
330
1F
100
AcDbEntity
  8
1
  6
Continuous
 62
   155
370
    13
100
AcDbLine
 10
6490.886875
 20
6135.795697
 30
0.0
 11
6479.186875
 21
6135.795697
 31
0.0
  0
LINE
  5
154
330
1F
100
AcDbEntity
  8
1
  6
PHANTOM
 62
   135
370
    13
100
AcDbLine
 10
6482.686875
 20
6108.595697
 30
0.0
 11
6482.686875
 21
5668.595697
 31
0.0
  0
LINE
  5
155
330
1F
100
AcDbEntity
  8
1
  6
PHANTOM
 62
   135
370
    13
100
AcDbLine
 10
6481.486875
 20
6108.595697
 30
0.0
 11
6481.486875
 21
5668.595697
 31
0.0
  0
LINE
  5
156
330
1F
100
AcDbEntity
  8
1
  6
PHANTOM
 62
   135
370
    13
100
AcDbLine
 10
6492.486875
 20
6126.595697
 30
0.0
 11
6491.486875
 21
6126.595697
 31
0.0
  0
LINE
  5
157
330
1F
100
AcDbEntity
  8
1
  6
PHANTOM
 62
   135
370
    13
100
AcDbLine
 10
6491.486875
 20
5650.595697
 30
0.0
 11
6492.486875
 21
5650.595697
 31
0.0
  0
LINE
  5
158
330
1F
100
AcDbEntity
  8
1
  6
PHANTOM
 62
   135
370
    13
100
AcDbLine
 10
6490.886875
 20
5642.595697
 30
0.0
 11
6479.186875
 21
5642.595697
 31
0.0
  0
LINE
  5
159
330
1F
100
AcDbEntity
  8
1
  6
PHANTOM
 62
   135
370
    13
100
AcDbLine
 10
6479.186875
 20
6134.595697
 30
0.0
 11
6490.886875
 21
6134.595697
 31
0.0
  0
LINE
  5
15A
330
1F
100
AcDbEntity
  8
1
  6
PHANTOM
 62
   135
370
    13
100
AcDbLine
 10
6492.486875
 20
6131.595697
 30
0.0
 11
6492.486875
 21
5645.595697
 31
0.0
  0
LINE
  5
15B
330
1F
100
AcDbEntity
  8
1
  6
PHANTOM
 62
   135
370
    13
100
AcDbLine
 10
6482.686875
 20
5915.345697
 30
0.0
 11
6481.486875
 21
5915.345697
 31
0.0
  0
LINE
  5
15C
330
1F
100
AcDbEntity
  8
1
  6
PHANTOM
 62
   135
370
    13
100
AcDbLine
 10
6481.486875
 20
5911.845697
 30
0.0
 11
6482.686875
 21
5911.845697
 31
0.0
  0
LINE
  5
15D
330
1F
100
AcDbEntity
  8
1
  6
PHANTOM
 62
   135
370
    13
100
AcDbLine
 10
6482.686875
 20
5840.345697
 30
0.0
 11
6481.486875
 21
5840.345697
 31
0.0
  0
LINE
  5
15E
330
1F
100
AcDbEntity
  8
1
  6
PHANTOM
 62
   135
370
    13
100
AcDbLine
 10
6481.486875
 20
5836.845697
 30
0.0
 11
6482.686875
 21
5836.845697
 31
0.0
  0
LINE
  5
15F
330
1F
100
AcDbEntity
  8
1
  6
PHANTOM
 62
   135
370
    13
100
AcDbLine
 10
6482.686875
 20
5715.345697
 30
0.0
 11
6481.486875
 21
5715.345697
 31
0.0
  0
LINE
  5
160
330
1F
100
AcDbEntity
  8
1
  6
PHANTOM
 62
   135
370
    13
100
AcDbLine
 10
6482.686875
 20
5890.345697
 30
0.0
 11
6481.486875
 21
5890.345697
 31
0.0
  0
LINE
  5
161
330
1F
100
AcDbEntity
  8
1
  6
PHANTOM
 62
   135
370
    13
100
AcDbLine
 10
6481.486875
 20
5886.845697
 30
0.0
 11
6482.686875
 21
5886.845697
 31
0.0
  0
LINE
  5
162
330
1F
100
AcDbEntity
  8
1
  6
PHANTOM
 62
   135
370
    13
100
AcDbLine
 10
6482.686875
 20
5865.345697
 30
0.0
 11
6481.486875
 21
5865.345697
 31
0.0
  0
LINE
  5
163
330
1F
100
AcDbEntity
  8
1
  6
PHANTOM
 62
   135
370
    13
100
AcDbLine
 10
6481.486875
 20
5861.845697
 30
0.0
 11
6482.686875
 21
5861.845697
 31
0.0
  0
LINE
  5
164
330
1F
100
AcDbEntity
  8
1
  6
PHANTOM
 62
   135
370
    13
100
AcDbLine
 10
6482.686875
 20
5690.345697
 30
0.0
 11
6481.486875
 21
5690.345697
 31
0.0
  0
LINE
  5
165
330
1F
100
AcDbEntity
  8
1
  6
PHANTOM
 62
   135
370
    13
100
AcDbLine
 10
6481.486875
 20
5686.845697
 30
0.0
 11
6482.686875
 21
5686.845697
 31
0.0
  0
LINE
  5
166
330
1F
100
AcDbEntity
  8
1
  6
PHANTOM
 62
   135
370
    13
100
AcDbLine
 10
6482.686875
 20
5815.345697
 30
0.0
 11
6481.486875
 21
5815.345697
 31
0.0
  0
LINE
  5
167
330
1F
100
AcDbEntity
  8
1
  6
PHANTOM
 62
   135
370
    13
100
AcDbLine
 10
6481.486875
 20
5811.845697
 30
0.0
 11
6482.686875
 21
5811.845697
 31
0.0
  0
LINE
  5
168
330
1F
100
AcDbEntity
  8
1
  6
PHANTOM
 62
   135
370
    13
100
AcDbLine
 10
6482.736875
 20
6065.345697
 30
0.0
 11
6482.736875
 21
6051.095697
 31
0.0
  0
LINE
  5
169
330
1F
100
AcDbEntity
  8
1
  6
PHANTOM
 62
   135
370
    13
100
AcDbLine
 10
6482.736875
 20
5726.095697
 30
0.0
 11
6482.736875
 21
5711.845697
 31
0.0
  0
LINE
  5
16A
330
1F
100
AcDbEntity
  8
1
  6
PHANTOM
 62
   135
370
    13
100
AcDbLine
 10
6482.736875
 20
6106.095697
 30
0.0
 11
6482.736875
 21
6091.845697
 31
0.0
  0
LINE
  5
16B
330
1F
100
AcDbEntity
  8
1
  6
PHANTOM
 62
   135
370
    13
100
AcDbLine
 10
6482.736875
 20
5685.345697
 30
0.0
 11
6482.736875
 21
5671.095697
 31
0.0
  0
LINE
  5
16C
330
1F
100
AcDbEntity
  8
1
  6
PHANTOM
 62
   135
370
    13
100
AcDbLine
 10
6480.736875
 20
5726.095697
 30
0.0
 11
6480.736875
 21
5711.845697
 31
0.0
  0
LINE
  5
16D
330
1F
100
AcDbEntity
  8
1
  6
PHANTOM
 62
   135
370
    13
100
AcDbLine
 10
6480.736875
 20
5685.345697
 30
0.0
 11
6480.736875
 21
5671.095697
 31
0.0
  0
LINE
  5
16E
330
1F
100
AcDbEntity
  8
1
  6
PHANTOM
 62
   135
370
    13
100
AcDbLine
 10
6480.736875
 20
6065.345697
 30
0.0
 11
6480.736875
 21
6051.095697
 31
0.0
  0
LINE
  5
16F
330
1F
100
AcDbEntity
  8
1
  6
PHANTOM
 62
   135
370
    13
100
AcDbLine
 10
6480.736875
 20
6106.095697
 30
0.0
 11
6480.736875
 21
6091.845697
 31
0.0
  0
LINE
  5
170
330
1F
100
AcDbEntity
  8
1
  6
PHANTOM
 62
   135
370
    13
100
AcDbLine
 10
6482.686875
 20
6090.345697
 30
0.0
 11
6481.486875
 21
6090.345697
 31
0.0
  0
LINE
  5
171
330
1F
100
AcDbEntity
  8
1
  6
PHANTOM
 62
   135
370
    13
100
AcDbLine
 10
6481.486875
 20
6086.845697
 30
0.0
 11
6482.686875
 21
6086.845697
 31
0.0
  0
LINE
  5
172
330
1F
100
AcDbEntity
  8
1
  6
PHANTOM
 62
   135
370
    13
100
AcDbLine
 10
6482.686875
 20
5965.345697
 30
0.0
 11
6481.486875
 21
5965.345697
 31
0.0
  0
LINE
  5
173
330
1F
100
AcDbEntity
  8
1
  6
PHANTOM
 62
   135
370
    13
100
AcDbLine
 10
6481.486875
 20
5961.845697
 30
0.0
 11
6482.686875
 21
5961.845697
 31
0.0
  0
LINE
  5
174
330
1F
100
AcDbEntity
  8
1
  6
PHANTOM
 62
   135
370
    13
100
AcDbLine
 10
6482.686875
 20
5940.345697
 30
0.0
 11
6481.486875
 21
5940.345697
 31
0.0
  0
LINE
  5
175
330
1F
100
AcDbEntity
  8
1
  6
PHANTOM
 62
   135
370
    13
100
AcDbLine
 10
6481.486875
 20
5936.845697
 30
0.0
 11
6482.686875
 21
5936.845697
 31
0.0
  0
LINE
  5
176
330
1F
100
AcDbEntity
  8
1
  6
PHANTOM
 62
   135
370
    13
100
AcDbLine
 10
6481.486875
 20
6061.845697
 30
0.0
 11
6482.686875
 21
6061.845697
 31
0.0
  0
LINE
  5
177
330
1F
100
AcDbEntity
  8
1
  6
PHANTOM
 62
   135
370
    13
100
AcDbLine
 10
6484.486875
 20
6119.595697
 30
0.0
 11
6484.486875
 21
5657.595697
 31
0.0
  0
LINE
  5
178
330
1F
100
AcDbEntity
  8
1
  6
Continuous
 62
   155
370
    25
100
AcDbLine
 10
6477.486875
 20
5729.595697
 30
0.0
 11
6479.187031
 21
5729.595697
 31
0.0
  0
LINE
  5
179
330
1F
100
AcDbEntity
  8
1
  6
PHANTOM
 62
   135
370
    13
100
AcDbLine
 10
6479.187031
 20
5729.595697
 30
0.0
 11
6492.486875
 21
5729.595697
 31
0.0
  0
LINE
  5
17A
330
1F
100
AcDbEntity
  8
1
  6
PHANTOM
 62
   135
370
    13
100
AcDbLine
 10
6492.486875
 20
5735.595697
 30
0.0
 11
6479.187031
 21
5735.595697
 31
0.0
  0
LINE
  5
17B
330
1F
100
AcDbEntity
  8
1
  6
Continuous
 62
   155
370
    25
100
AcDbLine
 10
6479.187031
 20
5735.595697
 30
0.0
 11
6477.486875
 21
5735.595697
 31
0.0
  0
LINE
  5
17C
330
1F
100
AcDbEntity
  8
1
  6
PHANTOM
 62
   135
370
    13
100
AcDbLine
 10
6493.686875
 20
5754.195697
 30
0.0
 11
6492.486875
 21
5754.195697
 31
0.0
  0
LINE
  5
17D
330
1F
100
AcDbEntity
  8
1
  6
PHANTOM
 62
   135
370
    13
100
AcDbLine
 10
6492.486875
 20
5774.595697
 30
0.0
 11
6493.686875
 21
5774.595697
 31
0.0
  0
LINE
  5
17E
330
1F
100
AcDbEntity
  8
1
  6
PHANTOM
 62
   135
370
    13
100
AcDbLine
 10
6482.686875
 20
6062.595697
 30
0.0
 11
6481.486875
 21
6062.595697
 31
0.0
  0
LINE
  5
17F
330
1F
100
AcDbEntity
  8
1
  6
PHANTOM
 62
   135
370
    13
100
AcDbLine
 10
6482.686875
 20
5714.595697
 30
0.0
 11
6481.486875
 21
5714.595697
 31
0.0
  0
LINE
  5
180
330
1F
100
AcDbEntity
  8
1
  6
PHANTOM
 62
   135
370
    13
100
AcDbLine
 10
6482.686875
 20
5812.595697
 30
0.0
 11
6481.486875
 21
5812.595697
 31
0.0
  0
LINE
  5
181
330
1F
100
AcDbEntity
  8
1
  6
PHANTOM
 62
   135
370
    13
100
AcDbLine
 10
6482.686875
 20
5964.595697
 30
0.0
 11
6481.486875
 21
5964.595697
 31
0.0
  0
LINE
  5
182
330
1F
100
AcDbEntity
  8
1
  6
PHANTOM
 62
   135
370
    13
100
AcDbLine
 10
6493.686875
 20
5769.141485
 30
0.0
 11
6492.486875
 21
5769.141485
 31
0.0
  0
LINE
  5
183
330
1F
100
AcDbEntity
  8
1
  6
PHANTOM
 62
   135
370
    13
100
AcDbLine
 10
6492.486875
 20
5759.649909
 30
0.0
 11
6493.686875
 21
5759.649909
 31
0.0
  0
LINE
  5
184
330
1F
100
AcDbEntity
  8
1
  6
PHANTOM
 62
   135
370
    13
100
AcDbLine
 10
6481.486875
 20
6053.595697
 30
0.0
 11
6482.686875
 21
6053.595697
 31
0.0
  0
LINE
  5
185
330
1F
100
AcDbEntity
  8
1
  6
PHANTOM
 62
   135
370
    13
100
AcDbLine
 10
6481.486875
 20
5973.595697
 30
0.0
 11
6482.686875
 21
5973.595697
 31
0.0
  0
LINE
  5
186
330
1F
100
AcDbEntity
  8
1
  6
PHANTOM
 62
   135
370
    13
100
AcDbLine
 10
6481.486875
 20
5723.595697
 30
0.0
 11
6482.686875
 21
5723.595697
 31
0.0
  0
LINE
  5
187
330
1F
100
AcDbEntity
  8
1
  6
PHANTOM
 62
   135
370
    13
100
AcDbLine
 10
6481.486875
 20
5803.595697
 30
0.0
 11
6482.686875
 21
5803.595697
 31
0.0
  0
LINE
  5
188
330
1F
100
AcDbEntity
  8
1
  6
PHANTOM
 62
   135
370
    13
100
AcDbLine
 10
6491.486875
 20
5668.595697
 30
0.0
 11
6492.486875
 21
5668.595697
 31
0.0
  0
LINE
  5
189
330
1F
100
AcDbEntity
  8
1
  6
PHANTOM
 62
   135
370
    13
100
AcDbLine
 10
6491.486875
 20
6108.595697
 30
0.0
 11
6492.486875
 21
6108.595697
 31
0.0
  0
LINE
  5
18A
330
1F
100
AcDbEntity
  8
1
  6
PHANTOM
 62
   135
370
    13
100
AcDbLine
 10
6491.286875
 20
6108.595697
 30
0.0
 11
6491.486875
 21
6108.595697
 31
0.0
  0
LINE
  5
18B
330
1F
100
AcDbEntity
  8
1
  6
PHANTOM
 62
   135
370
    13
100
AcDbLine
 10
6491.286875
 20
5668.595697
 30
0.0
 11
6491.286875
 21
6108.595697
 31
0.0
  0
LINE
  5
18C
330
1F
100
AcDbEntity
  8
1
  6
PHANTOM
 62
   135
370
    13
100
AcDbLine
 10
6491.486875
 20
5668.595697
 30
0.0
 11
6491.286875
 21
5668.595697
 31
0.0
  0
LINE
  5
18D
330
1F
100
AcDbEntity
  8
1
  6
PHANTOM
 62
   135
370
    13
100
AcDbLine
 10
6489.052323
 20
5685.345697
 30
0.0
 11
6489.052323
 21
5671.095697
 31
0.0
  0
LINE
  5
18E
330
1F
100
AcDbEntity
  8
1
  6
PHANTOM
 62
   135
370
    13
100
AcDbLine
 10
6489.052323
 20
5726.095697
 30
0.0
 11
6489.052323
 21
5711.845697
 31
0.0
  0
LINE
  5
18F
330
1F
100
AcDbEntity
  8
1
  6
PHANTOM
 62
   135
370
    13
100
AcDbLine
 10
6489.052323
 20
6051.095697
 30
0.0
 11
6489.052323
 21
6065.345697
 31
0.0
  0
LINE
  5
190
330
1F
100
AcDbEntity
  8
1
  6
PHANTOM
 62
   135
370
    13
100
AcDbLine
 10
6489.052323
 20
6091.845697
 30
0.0
 11
6489.052323
 21
6106.095697
 31
0.0
  0
LINE
  5
191
330
1F
100
AcDbEntity
  8
1
  6
PHANTOM
 62
   135
370
    13
100
AcDbLine
 10
6489.486875
 20
5726.095697
 30
0.0
 11
6489.486875
 21
5711.845697
 31
0.0
  0
LINE
  5
192
330
1F
100
AcDbEntity
  8
1
  6
PHANTOM
 62
   135
370
    13
100
AcDbLine
 10
6489.486875
 20
5685.345697
 30
0.0
 11
6489.486875
 21
5671.095697
 31
0.0
  0
LINE
  5
193
330
1F
100
AcDbEntity
  8
1
  6
Continuous
 62
   155
370
    25
100
AcDbLine
 10
5386.528328
 20
5641.395697
 30
0.0
 11
4998.628328
 21
5641.395697
 31
0.0
  0
LINE
  5
194
330
1F
100
AcDbEntity
  8
1
  6
PHANTOM
 62
   135
370
    13
100
AcDbLine
 10
4998.628328
 20
5726.095697
 30
0.0
 11
4998.628328
 21
5671.095697
 31
0.0
  0
LINE
  5
195
330
1F
100
AcDbEntity
  8
1
  6
PHANTOM
 62
   135
370
    13
100
AcDbLine
 10
4998.628328
 20
6051.095697
 30
0.0
 11
4998.628328
 21
6106.095697
 31
0.0
  0
LINE
  5
196
330
1F
100
AcDbEntity
  8
1
  6
PHANTOM
 62
   135
370
    13
100
AcDbLine
 10
5001.030822
 20
5685.345697
 30
0.0
 11
5001.030822
 21
5671.095697
 31
0.0
  0
LINE
  5
197
330
1F
100
AcDbEntity
  8
1
  6
PHANTOM
 62
   135
370
    13
100
AcDbLine
 10
5001.030822
 20
5726.095697
 30
0.0
 11
5001.030822
 21
5711.845697
 31
0.0
  0
LINE
  5
198
330
1F
100
AcDbEntity
  8
1
  6
PHANTOM
 62
   135
370
    13
100
AcDbLine
 10
5001.030822
 20
6051.095697
 30
0.0
 11
5001.030822
 21
6065.345697
 31
0.0
  0
LINE
  5
199
330
1F
100
AcDbEntity
  8
1
  6
PHANTOM
 62
   135
370
    13
100
AcDbLine
 10
5001.030822
 20
6091.845697
 30
0.0
 11
5001.030822
 21
6106.095697
 31
0.0
  0
LINE
  5
19A
330
1F
100
AcDbEntity
  8
1
  6
PHANTOM
 62
   135
370
    13
100
AcDbLine
 10
5041.828328
 20
6108.595697
 30
0.0
 11
5041.828328
 21
5668.595697
 31
0.0
  0
LINE
  5
19B
330
1F
100
AcDbEntity
  8
1
  6
PHANTOM
 62
   135
370
    13
100
AcDbLine
 10
5363.328328
 20
5668.595697
 30
0.0
 11
5363.328328
 21
6108.595697
 31
0.0
  0
LINE
  5
19C
330
1F
100
AcDbEntity
  8
1
  6
PHANTOM
 62
   135
370
    13
100
AcDbLine
 10
5001.428328
 20
5726.095697
 30
0.0
 11
5001.428328
 21
5711.845697
 31
0.0
  0
LINE
  5
19D
330
1F
100
AcDbEntity
  8
1
  6
PHANTOM
 62
   135
370
    13
100
AcDbLine
 10
5001.428328
 20
6091.845697
 30
0.0
 11
5001.428328
 21
6106.095697
 31
0.0
  0
LINE
  5
19E
330
1F
100
AcDbEntity
  8
1
  6
PHANTOM
 62
   135
370
    13
100
AcDbLine
 10
5001.428328
 20
6051.095697
 30
0.0
 11
5001.428328
 21
6065.345697
 31
0.0
  0
LINE
  5
19F
330
1F
100
AcDbEntity
  8
1
  6
PHANTOM
 62
   135
370
    13
100
AcDbLine
 10
5001.428328
 20
5685.345697
 30
0.0
 11
5001.428328
 21
5671.095697
 31
0.0
  0
LINE
  5
1A0
330
1F
100
AcDbEntity
  8
1
  6
Continuous
 62
   155
370
    25
100
AcDbLine
 10
5347.974115
 20
6022.995697
 30
0.0
 11
5338.48254
 21
6022.995697
 31
0.0
  0
LINE
  5
1A1
330
1F
100
AcDbEntity
  8
1
  6
Continuous
 62
   155
370
    25
100
AcDbLine
 10
5353.428328
 20
6008.049909
 30
0.0
 11
5353.428328
 21
6017.541485
 31
0.0
  0
LINE
  5
1A2
330
1F
100
AcDbEntity
  8
1
  6
Continuous
 62
   155
370
    25
100
AcDbLine
 10
5338.48254
 20
6002.595697
 30
0.0
 11
5347.974115
 21
6002.595697
 31
0.0
  0
LINE
  5
1A3
330
1F
100
AcDbEntity
  8
1
  6
Continuous
 62
   155
370
    25
100
AcDbLine
 10
5333.028328
 20
6017.541485
 30
0.0
 11
5333.028328
 21
6008.049909
 31
0.0
  0
LINE
  5
1A4
330
1F
100
AcDbEntity
  8
1
  6
Continuous
 62
   155
370
    25
100
AcDbLine
 10
5039.028328
 20
6108.595697
 30
0.0
 11
5027.828328
 21
6108.595697
 31
0.0
  0
LINE
  5
1A5
330
1F
100
AcDbEntity
  8
1
  6
Continuous
 62
   155
370
    25
100
AcDbLine
 10
5039.028328
 20
5668.595697
 30
0.0
 11
5027.828328
 21
5668.595697
 31
0.0
  0
LINE
  5
1A6
330
1F
100
AcDbEntity
  8
1
  6
Continuous
 62
   155
370
    25
100
AcDbLine
 10
5027.828328
 20
5668.595697
 30
0.0
 11
5027.828328
 21
6108.595697
 31
0.0
  0
LINE
  5
1A7
330
1F
100
AcDbEntity
  8
1
  6
Continuous
 62
   155
370
    25
100
AcDbLine
 10
5005.900125
 20
6106.095697
 30
0.0
 11
5005.078298
 21
6106.095697
 31
0.0
  0
LINE
  5
1A8
330
1F
100
AcDbEntity
  8
1
  6
Continuous
 62
   155
370
    25
100
AcDbLine
 10
5005.900125
 20
6051.095697
 30
0.0
 11
5005.078298
 21
6051.095697
 31
0.0
  0
LINE
  5
1A9
330
1F
100
AcDbEntity
  8
1
  6
Continuous
 62
   155
370
    25
100
AcDbLine
 10
5005.900125
 20
5726.095697
 30
0.0
 11
5005.078298
 21
5726.095697
 31
0.0
  0
LINE
  5
1AA
330
1F
100
AcDbEntity
  8
1
  6
Continuous
 62
   155
370
    25
100
AcDbLine
 10
5005.900125
 20
5671.095697
 30
0.0
 11
5005.078298
 21
5671.095697
 31
0.0
  0
LINE
  5
1AB
330
1F
100
AcDbEntity
  8
1
  6
Continuous
 62
   155
370
    25
100
AcDbLine
 10
4995.799901
 20
5711.845697
 30
0.0
 11
4995.799901
 21
5685.345697
 31
0.0
  0
LINE
  5
1AC
330
1F
100
AcDbEntity
  8
1
  6
Continuous
 62
   155
370
    25
100
AcDbLine
 10
4995.799901
 20
6065.345697
 30
0.0
 11
4995.799901
 21
6091.845697
 31
0.0
  0
LINE
  5
1AD
330
1F
100
AcDbEntity
  8
1
  6
Continuous
 62
   155
370
    25
100
AcDbLine
 10
5364.528328
 20
6108.595697
 30
0.0
 11
5365.331186
 21
6108.595697
 31
0.0
  0
LINE
  5
1AE
330
1F
100
AcDbEntity
  8
1
  6
Continuous
 62
   155
370
    25
100
AcDbLine
 10
5365.331186
 20
5668.595697
 30
0.0
 11
5364.528328
 21
5668.595697
 31
0.0
  0
LINE
  5
1AF
330
1F
100
AcDbEntity
  8
1
  6
Continuous
 62
   155
370
    25
100
AcDbLine
 10
5039.028328
 20
6108.595697
 30
0.0
 11
5040.628328
 21
6108.595697
 31
0.0
  0
LINE
  5
1B0
330
1F
100
AcDbEntity
  8
1
  6
Continuous
 62
   155
370
    25
100
AcDbLine
 10
5040.628328
 20
5668.595697
 30
0.0
 11
5039.028328
 21
5668.595697
 31
0.0
  0
LINE
  5
1B1
330
1F
100
AcDbEntity
  8
1
  6
Continuous
 62
   155
370
    25
100
AcDbLine
 10
4995.995944
 20
5671.095697
 30
0.0
 11
4995.628328
 21
5671.095697
 31
0.0
  0
LINE
  5
1B2
330
1F
100
AcDbEntity
  8
1
  6
Continuous
 62
   155
370
    25
100
AcDbLine
 10
4995.628328
 20
5685.345697
 30
0.0
 11
4995.995944
 21
5685.345697
 31
0.0
  0
LINE
  5
1B3
330
1F
100
AcDbEntity
  8
1
  6
Continuous
 62
   155
370
    25
100
AcDbLine
 10
4995.995944
 20
5726.095697
 30
0.0
 11
4995.628328
 21
5726.095697
 31
0.0
  0
LINE
  5
1B4
330
1F
100
AcDbEntity
  8
1
  6
Continuous
 62
   155
370
    25
100
AcDbLine
 10
4995.628328
 20
5711.845697
 30
0.0
 11
4995.995944
 21
5711.845697
 31
0.0
  0
LINE
  5
1B5
330
1F
100
AcDbEntity
  8
1
  6
Continuous
 62
   155
370
    25
100
AcDbLine
 10
4995.628328
 20
6065.345697
 30
0.0
 11
4995.995944
 21
6065.345697
 31
0.0
  0
LINE
  5
1B6
330
1F
100
AcDbEntity
  8
1
  6
Continuous
 62
   155
370
    25
100
AcDbLine
 10
4995.995944
 20
6051.095697
 30
0.0
 11
4995.628328
 21
6051.095697
 31
0.0
  0
LINE
  5
1B7
330
1F
100
AcDbEntity
  8
1
  6
Continuous
 62
   155
370
    25
100
AcDbLine
 10
4995.995944
 20
6106.095697
 30
0.0
 11
4995.628328
 21
6106.095697
 31
0.0
  0
LINE
  5
1B8
330
1F
100
AcDbEntity
  8
1
  6
Continuous
 62
   155
370
    25
100
AcDbLine
 10
4995.628328
 20
6091.845697
 30
0.0
 11
4995.995944
 21
6091.845697
 31
0.0
  0
LINE
  5
1B9
330
1F
100
AcDbEntity
  8
1
  6
Continuous
 62
   155
370
    25
100
AcDbLine
 10
5365.328328
 20
5664.595697
 30
0.0
 11
5365.328328
 21
5668.595697
 31
0.0
  0
LINE
  5
1BA
330
1F
100
AcDbEntity
  8
1
  6
Continuous
 62
   155
370
    25
100
AcDbLine
 10
5379.328328
 20
6119.595697
 30
0.0
 11
5379.328328
 21
5657.595697
 31
0.0
  0
LINE
  5
1BB
330
1F
100
AcDbEntity
  8
1
  6
Continuous
 62
   155
370
    25
100
AcDbLine
 10
5351.528328
 20
5668.595697
 30
0.0
 11
5351.528328
 21
5714.595697
 31
0.0
  0
LINE
  5
1BC
330
1F
100
AcDbEntity
  8
1
  6
Continuous
 62
   155
370
    25
100
AcDbLine
 10
5365.328328
 20
5664.595697
 30
0.0
 11
5372.328328
 21
5657.595697
 31
0.0
  0
LINE
  5
1BD
330
1F
100
AcDbEntity
  8
1
  6
Continuous
 62
   155
370
    25
100
AcDbLine
 10
5019.828328
 20
5664.595697
 30
0.0
 11
5365.328328
 21
5664.595697
 31
0.0
  0
LINE
  5
1BE
330
1F
100
AcDbEntity
  8
1
  6
Continuous
 62
   155
370
    25
100
AcDbLine
 10
5372.328328
 20
5650.595697
 30
0.0
 11
5012.828328
 21
5650.595697
 31
0.0
  0
LINE
  5
1BF
330
1F
100
AcDbEntity
  8
1
  6
Continuous
 62
   155
370
    25
100
AcDbLine
 10
5012.828328
 20
5657.595697
 30
0.0
 11
5019.828328
 21
5664.595697
 31
0.0
  0
LINE
  5
1C0
330
1F
100
AcDbEntity
  8
1
  6
Continuous
 62
   155
370
    25
100
AcDbLine
 10
5019.828328
 20
6112.595697
 30
0.0
 11
5019.828328
 21
5664.595697
 31
0.0
  0
LINE
  5
1C1
330
1F
100
AcDbEntity
  8
1
  6
Continuous
 62
   155
370
    25
100
AcDbLine
 10
5005.828328
 20
6106.095697
 30
0.0
 11
5005.828328
 21
6119.595697
 31
0.0
  0
LINE
  5
1C2
330
1F
100
AcDbEntity
  8
1
  6
Continuous
 62
   155
370
    25
100
AcDbLine
 10
5005.900125
 20
6051.095697
 30
0.0
 11
5005.900125
 21
6106.095697
 31
0.0
  0
LINE
  5
1C3
330
1F
100
AcDbEntity
  8
1
  6
Continuous
 62
   155
370
    25
100
AcDbLine
 10
5005.828328
 20
5726.095697
 30
0.0
 11
5005.828328
 21
6051.095697
 31
0.0
  0
LINE
  5
1C4
330
1F
100
AcDbEntity
  8
1
  6
Continuous
 62
   155
370
    25
100
AcDbLine
 10
5005.900125
 20
5671.095697
 30
0.0
 11
5005.900125
 21
5726.095697
 31
0.0
  0
LINE
  5
1C5
330
1F
100
AcDbEntity
  8
1
  6
Continuous
 62
   155
370
    25
100
AcDbLine
 10
5005.828328
 20
5657.595697
 30
0.0
 11
5005.828328
 21
5671.095697
 31
0.0
  0
LINE
  5
1C6
330
1F
100
AcDbEntity
  8
1
  6
Continuous
 62
   155
370
    25
100
AcDbLine
 10
5365.328328
 20
6112.595697
 30
0.0
 11
5372.328328
 21
6119.595697
 31
0.0
  0
LINE
  5
1C7
330
1F
100
AcDbEntity
  8
1
  6
Continuous
 62
   155
370
    25
100
AcDbLine
 10
5012.828328
 20
6126.595697
 30
0.0
 11
5372.328328
 21
6126.595697
 31
0.0
  0
LINE
  5
1C8
330
1F
100
AcDbEntity
  8
1
  6
Continuous
 62
   155
370
    25
100
AcDbLine
 10
5012.828328
 20
6119.595697
 30
0.0
 11
5019.828328
 21
6112.595697
 31
0.0
  0
LINE
  5
1C9
330
1F
100
AcDbEntity
  8
1
  6
Continuous
 62
   155
370
    25
100
AcDbLine
 10
5365.328328
 20
6112.595697
 30
0.0
 11
5019.828328
 21
6112.595697
 31
0.0
  0
LINE
  5
1CA
330
1F
100
AcDbEntity
  8
1
  6
Continuous
 62
   155
370
    25
100
AcDbLine
 10
5053.628328
 20
6108.595697
 30
0.0
 11
5043.428328
 21
6108.595697
 31
0.0
  0
LINE
  5
1CB
330
1F
100
AcDbEntity
  8
1
  6
Continuous
 62
   155
370
    25
100
AcDbLine
 10
5053.628328
 20
5668.595697
 30
0.0
 11
5043.428328
 21
5668.595697
 31
0.0
  0
LINE
  5
1CC
330
1F
100
AcDbEntity
  8
1
  6
Continuous
 62
   155
370
    25
100
AcDbLine
 10
5053.628328
 20
5668.595697
 30
0.0
 11
5053.628328
 21
5714.595697
 31
0.0
  0
LINE
  5
1CD
330
1F
100
AcDbEntity
  8
1
  6
Continuous
 62
   155
370
    25
100
AcDbLine
 10
5040.628328
 20
6108.595697
 30
0.0
 11
5043.428328
 21
6108.595697
 31
0.0
  0
LINE
  5
1CE
330
1F
100
AcDbEntity
  8
1
  6
Continuous
 62
   155
370
    25
100
AcDbLine
 10
5043.428328
 20
5668.595697
 30
0.0
 11
5040.628328
 21
5668.595697
 31
0.0
  0
LINE
  5
1CF
330
1F
100
AcDbEntity
  8
1
  6
Continuous
 62
   155
370
    25
100
AcDbLine
 10
5361.728328
 20
6108.595697
 30
0.0
 11
5364.528328
 21
6108.595697
 31
0.0
  0
LINE
  5
1D0
330
1F
100
AcDbEntity
  8
1
  6
Continuous
 62
   155
370
    25
100
AcDbLine
 10
5364.528328
 20
5668.595697
 30
0.0
 11
5361.728328
 21
5668.595697
 31
0.0
  0
LINE
  5
1D1
330
1F
100
AcDbEntity
  8
1
  6
Continuous
 62
   155
370
    25
100
AcDbLine
 10
5361.728328
 20
6108.595697
 30
0.0
 11
5351.528328
 21
6108.595697
 31
0.0
  0
LINE
  5
1D2
330
1F
100
AcDbEntity
  8
1
  6
Continuous
 62
   155
370
    25
100
AcDbLine
 10
5347.974115
 20
5754.195697
 30
0.0
 11
5338.48254
 21
5754.195697
 31
0.0
  0
LINE
  5
1D3
330
1F
100
AcDbEntity
  8
1
  6
Continuous
 62
   155
370
    25
100
AcDbLine
 10
5333.028328
 20
5759.649909
 30
0.0
 11
5333.028328
 21
5769.141485
 31
0.0
  0
LINE
  5
1D4
330
1F
100
AcDbEntity
  8
1
  6
Continuous
 62
   155
370
    25
100
AcDbLine
 10
5338.48254
 20
5774.595697
 30
0.0
 11
5347.974115
 21
5774.595697
 31
0.0
  0
LINE
  5
1D5
330
1F
100
AcDbEntity
  8
1
  6
Continuous
 62
   155
370
    25
100
AcDbLine
 10
5353.428328
 20
5769.141485
 30
0.0
 11
5353.428328
 21
5759.649909
 31
0.0
  0
LINE
  5
1D6
330
1F
100
AcDbEntity
  8
1
  6
Continuous
 62
   155
370
    25
100
AcDbLine
 10
5365.328328
 20
6108.595697
 30
0.0
 11
5365.328328
 21
6112.595697
 31
0.0
  0
LINE
  5
1D7
330
1F
100
AcDbEntity
  8
1
  6
Continuous
 62
   155
370
    25
100
AcDbLine
 10
5361.728328
 20
5668.595697
 30
0.0
 11
5351.528328
 21
5668.595697
 31
0.0
  0
LINE
  5
1D8
330
1F
100
AcDbEntity
  8
1
  6
Continuous
 62
   155
370
    25
100
AcDbLine
 10
5005.078328
 20
5711.845697
 30
0.0
 11
4995.995944
 21
5711.845697
 31
0.0
  0
LINE
  5
1D9
330
1F
100
AcDbEntity
  8
1
  6
Continuous
 62
   155
370
    25
100
AcDbLine
 10
5005.078328
 20
6091.845697
 30
0.0
 11
4995.995944
 21
6091.845697
 31
0.0
  0
LINE
  5
1DA
330
1F
100
AcDbEntity
  8
1
  6
Continuous
 62
   155
370
    25
100
AcDbLine
 10
5005.078328
 20
6065.345697
 30
0.0
 11
4995.995944
 21
6065.345697
 31
0.0
  0
LINE
  5
1DB
330
1F
100
AcDbEntity
  8
1
  6
Continuous
 62
   155
370
    25
100
AcDbLine
 10
5005.078328
 20
5685.345697
 30
0.0
 11
4995.995944
 21
5685.345697
 31
0.0
  0
LINE
  5
1DC
330
1F
100
AcDbEntity
  8
1
  6
Continuous
 62
   155
370
    25
100
AcDbLine
 10
5390.728328
 20
6131.595697
 30
0.0
 11
5390.728328
 21
5645.595697
 31
0.0
  0
LINE
  5
1DD
330
1F
100
AcDbEntity
  8
1
  6
Continuous
 62
   155
370
    25
100
AcDbLine
 10
4998.628328
 20
6135.795697
 30
0.0
 11
5386.528328
 21
6135.795697
 31
0.0
  0
LINE
  5
1DE
330
1F
100
AcDbEntity
  8
1
  6
Continuous
 62
   155
370
    25
100
AcDbLine
 10
4995.628328
 20
5645.595697
 30
0.0
 11
4995.628328
 21
6131.595697
 31
0.0
  0
LINE
  5
1DF
330
1F
100
AcDbEntity
  8
1
  6
Continuous
 62
   155
370
    25
100
AcDbLine
 10
4994.428328
 20
5645.595697
 30
0.0
 11
4994.428328
 21
6131.595697
 31
0.0
  0
LINE
  5
1E0
330
1F
100
AcDbEntity
  8
1
  6
Continuous
 62
   155
370
    13
100
AcDbLine
 10
5040.628328
 20
5668.595697
 30
0.0
 11
5040.628328
 21
6108.595697
 31
0.0
  0
LINE
  5
1E1
330
1F
100
AcDbEntity
  8
1
  6
Continuous
 62
   155
370
    13
100
AcDbLine
 10
5389.528328
 20
6131.595697
 30
0.0
 11
5389.528328
 21
5645.595697
 31
0.0
  0
LINE
  5
1E2
330
1F
100
AcDbEntity
  8
1
  6
Continuous
 62
   155
370
    13
100
AcDbLine
 10
5364.528328
 20
6108.595697
 30
0.0
 11
5364.528328
 21
5668.595697
 31
0.0
  0
LINE
  5
1E3
330
1F
100
AcDbEntity
  8
1
  6
Continuous
 62
   155
370
    13
100
AcDbLine
 10
5386.528328
 20
5642.595697
 30
0.0
 11
4998.628328
 21
5642.595697
 31
0.0
  0
LINE
  5
1E4
330
1F
100
AcDbEntity
  8
1
  6
Continuous
 62
   155
370
    13
100
AcDbLine
 10
4998.628328
 20
6134.595697
 30
0.0
 11
5386.528328
 21
6134.595697
 31
0.0
  0
LINE
  5
1E5
330
1F
100
AcDbEntity
  8
1
  6
PHANTOM
 62
   135
370
    13
100
AcDbLine
 10
4997.628328
 20
5726.095697
 30
0.0
 11
4997.628328
 21
5711.845697
 31
0.0
  0
LINE
  5
1E6
330
1F
100
AcDbEntity
  8
1
  6
PHANTOM
 62
   135
370
    13
100
AcDbLine
 10
4997.628328
 20
6065.345697
 30
0.0
 11
4997.628328
 21
6051.095697
 31
0.0
  0
LINE
  5
1E7
330
1F
100
AcDbEntity
  8
1
  6
PHANTOM
 62
   135
370
    13
100
AcDbLine
 10
4997.628328
 20
6106.095697
 30
0.0
 11
4997.628328
 21
6091.845697
 31
0.0
  0
LINE
  5
1E8
330
1F
100
AcDbEntity
  8
1
  6
PHANTOM
 62
   135
370
    13
100
AcDbLine
 10
4997.628328
 20
5685.345697
 30
0.0
 11
4997.628328
 21
5671.095697
 31
0.0
  0
LINE
  5
1E9
330
1F
100
AcDbEntity
  8
1
  6
PHANTOM
 62
   135
370
    13
100
AcDbLine
 10
5003.078328
 20
5671.095697
 30
0.0
 11
5003.078328
 21
5685.345697
 31
0.0
  0
LINE
  5
1EA
330
1F
100
AcDbEntity
  8
1
  6
PHANTOM
 62
   135
370
    13
100
AcDbLine
 10
5003.078328
 20
5711.845697
 30
0.0
 11
5003.078328
 21
5726.095697
 31
0.0
  0
LINE
  5
1EB
330
1F
100
AcDbEntity
  8
1
  6
PHANTOM
 62
   135
370
    13
100
AcDbLine
 10
5003.078328
 20
6051.095697
 30
0.0
 11
5003.078328
 21
6065.345697
 31
0.0
  0
LINE
  5
1EC
330
1F
100
AcDbEntity
  8
1
  6
PHANTOM
 62
   135
370
    13
100
AcDbLine
 10
5003.078328
 20
6091.845697
 30
0.0
 11
5003.078328
 21
6106.095697
 31
0.0
  0
LINE
  5
1ED
330
1F
100
AcDbEntity
  8
1
  6
Continuous
 62
   155
370
    25
100
AcDbLine
 10
5005.078328
 20
5711.845697
 30
0.0
 11
5005.078328
 21
5726.095697
 31
0.0
  0
LINE
  5
1EE
330
1F
100
AcDbEntity
  8
1
  6
Continuous
 62
   155
370
    25
100
AcDbLine
 10
5005.078328
 20
6091.845697
 30
0.0
 11
5005.078328
 21
6106.095697
 31
0.0
  0
LINE
  5
1EF
330
1F
100
AcDbEntity
  8
1
  6
Continuous
 62
   155
370
    25
100
AcDbLine
 10
5005.078328
 20
6051.095697
 30
0.0
 11
5005.078328
 21
6065.345697
 31
0.0
  0
LINE
  5
1F0
330
1F
100
AcDbEntity
  8
1
  6
Continuous
 62
   155
370
    25
100
AcDbLine
 10
5005.078328
 20
5671.095697
 30
0.0
 11
5005.078328
 21
5685.345697
 31
0.0
  0
LINE
  5
1F1
330
1F
100
AcDbEntity
  8
1
  6
Continuous
 62
   155
370
    25
100
AcDbLine
 10
5365.331186
 20
5668.595697
 30
0.0
 11
5365.331186
 21
6108.595697
 31
0.0
  0
LINE
  5
1F2
330
1F
100
AcDbEntity
  8
1
  6
Continuous
 62
   155
370
    25
100
AcDbLine
 10
5053.628328
 20
5812.595697
 30
0.0
 11
5044.628328
 21
5803.595697
 31
0.0
  0
LINE
  5
1F3
330
1F
100
AcDbEntity
  8
1
  6
Continuous
 62
   155
370
    25
100
AcDbLine
 10
5044.628328
 20
5723.595697
 30
0.0
 11
5053.628328
 21
5714.595697
 31
0.0
  0
LINE
  5
1F4
330
1F
100
AcDbEntity
  8
1
  6
Continuous
 62
   155
370
    25
100
AcDbLine
 10
5044.628328
 20
5803.595697
 30
0.0
 11
5044.628328
 21
5723.595697
 31
0.0
  0
LINE
  5
1F5
330
1F
100
AcDbEntity
  8
1
  6
Continuous
 62
   155
370
    25
100
AcDbLine
 10
5044.628328
 20
6053.595697
 30
0.0
 11
5044.628328
 21
5973.595697
 31
0.0
  0
LINE
  5
1F6
330
1F
100
AcDbEntity
  8
1
  6
Continuous
 62
   155
370
    25
100
AcDbLine
 10
5053.628328
 20
6062.595697
 30
0.0
 11
5044.628328
 21
6053.595697
 31
0.0
  0
LINE
  5
1F7
330
1F
100
AcDbEntity
  8
1
  6
Continuous
 62
   155
370
    25
100
AcDbLine
 10
5044.628328
 20
5973.595697
 30
0.0
 11
5053.628328
 21
5964.595697
 31
0.0
  0
LINE
  5
1F8
330
1F
100
AcDbEntity
  8
1
  6
Continuous
 62
   155
370
    25
100
AcDbLine
 10
5053.628328
 20
5812.595697
 30
0.0
 11
5053.628328
 21
5964.595697
 31
0.0
  0
LINE
  5
1F9
330
1F
100
AcDbEntity
  8
1
  6
Continuous
 62
   155
370
    25
100
AcDbLine
 10
5053.628328
 20
6062.595697
 30
0.0
 11
5053.628328
 21
6108.595697
 31
0.0
  0
LINE
  5
1FA
330
1F
100
AcDbEntity
  8
1
  6
Continuous
 62
   155
370
    25
100
AcDbLine
 10
5351.528328
 20
6062.595697
 30
0.0
 11
5351.528328
 21
6108.595697
 31
0.0
  0
LINE
  5
1FB
330
1F
100
AcDbEntity
  8
1
  6
Continuous
 62
   155
370
    25
100
AcDbLine
 10
5360.528328
 20
6053.595697
 30
0.0
 11
5351.528328
 21
6062.595697
 31
0.0
  0
LINE
  5
1FC
330
1F
100
AcDbEntity
  8
1
  6
Continuous
 62
   155
370
    25
100
AcDbLine
 10
5360.528328
 20
5973.595697
 30
0.0
 11
5360.528328
 21
6053.595697
 31
0.0
  0
LINE
  5
1FD
330
1F
100
AcDbEntity
  8
1
  6
Continuous
 62
   155
370
    25
100
AcDbLine
 10
5351.528328
 20
5964.595697
 30
0.0
 11
5360.528328
 21
5973.595697
 31
0.0
  0
LINE
  5
1FE
330
1F
100
AcDbEntity
  8
1
  6
Continuous
 62
   155
370
    25
100
AcDbLine
 10
5351.528328
 20
5812.595697
 30
0.0
 11
5351.528328
 21
5964.595697
 31
0.0
  0
LINE
  5
1FF
330
1F
100
AcDbEntity
  8
1
  6
Continuous
 62
   155
370
    25
100
AcDbLine
 10
5360.528328
 20
5803.595697
 30
0.0
 11
5351.528328
 21
5812.595697
 31
0.0
  0
LINE
  5
200
330
1F
100
AcDbEntity
  8
1
  6
Continuous
 62
   155
370
    25
100
AcDbLine
 10
5360.528328
 20
5723.595697
 30
0.0
 11
5360.528328
 21
5803.595697
 31
0.0
  0
LINE
  5
201
330
1F
100
AcDbEntity
  8
1
  6
Continuous
 62
   155
370
    25
100
AcDbLine
 10
5351.528328
 20
5714.595697
 30
0.0
 11
5360.528328
 21
5723.595697
 31
0.0
  0
LINE
  5
202
330
1F
100
AcDbEntity
  8
1
  6
PHANTOM
 62
   135
370
    13
100
AcDbLine
 10
6171.631483
 20
6091.845697
 30
0.0
 11
6172.028958
 21
6091.845697
 31
0.0
  0
LINE
  5
203
330
1F
100
AcDbEntity
  8
1
  6
PHANTOM
 62
   135
370
    13
100
AcDbLine
 10
6172.028989
 20
5685.345697
 30
0.0
 11
6174.431378
 21
5685.345697
 31
0.0
  0
LINE
  5
204
330
1F
100
AcDbEntity
  8
1
  6
PHANTOM
 62
   135
370
    13
100
AcDbLine
 10
6172.028989
 20
5711.845697
 30
0.0
 11
6174.431378
 21
5711.845697
 31
0.0
  0
LINE
  5
205
330
1F
100
AcDbEntity
  8
1
  6
PHANTOM
 62
   135
370
    13
100
AcDbLine
 10
6172.028989
 20
6065.345697
 30
0.0
 11
6174.431378
 21
6065.345697
 31
0.0
  0
LINE
  5
206
330
1F
100
AcDbEntity
  8
1
  6
PHANTOM
 62
   135
370
    13
100
AcDbLine
 10
6481.486886
 20
5711.845697
 30
0.0
 11
6482.686777
 21
5711.845697
 31
0.0
  0
LINE
  5
207
330
1F
100
AcDbEntity
  8
1
  6
PHANTOM
 62
   135
370
    13
100
AcDbLine
 10
6481.486886
 20
6065.345697
 30
0.0
 11
6482.686777
 21
6065.345697
 31
0.0
  0
LINE
  5
208
330
1F
100
AcDbEntity
  8
1
  6
Continuous
 62
   155
370
    25
100
AcDbLine
 10
4995.995944
 20
6106.095697
 30
0.0
 11
5005.078298
 21
6106.095697
 31
0.0
  0
LINE
  5
209
330
1F
100
AcDbEntity
  8
1
  6
Continuous
 62
   155
370
    25
100
AcDbLine
 10
4995.995944
 20
6051.095697
 30
0.0
 11
5005.078298
 21
6051.095697
 31
0.0
  0
LINE
  5
20A
330
1F
100
AcDbEntity
  8
1
  6
Continuous
 62
   155
370
    25
100
AcDbLine
 10
4995.995944
 20
5726.095697
 30
0.0
 11
5005.078298
 21
5726.095697
 31
0.0
  0
LINE
  5
20B
330
1F
100
AcDbEntity
  8
1
  6
Continuous
 62
   155
370
    25
100
AcDbLine
 10
4995.995944
 20
5671.095697
 30
0.0
 11
5005.078298
 21
5671.095697
 31
0.0
  0
ARC
  5
20C
330
1F
100
AcDbEntity
  8
1
  6
Continuous
 62
   155
370
    25
100
AcDbCircle
 10
5829.831483
 20
6012.795697
 30
0.0
 40
11.25
100
AcDbArc
 50
24.951301
 51
65.048699
  0
CIRCLE
  5
20D
330
1F
100
AcDbEntity
  8
1
  6
PHANTOM
 62
   135
370
    13
100
AcDbCircle
 10
6112.431483
 20
5732.595697
 30
0.0
 40
3.0
  0
ARC
  5
20E
330
1F
100
AcDbEntity
  8
1
  6
PHANTOM
 62
   135
370
    13
100
AcDbCircle
 10
6160.231483
 20
6119.595697
 30
0.0
 40
7.0
100
AcDbArc
 50
0.0
 51
90.0
  0
ARC
  5
20F
330
1F
100
AcDbEntity
  8
1
  6
PHANTOM
 62
   135
370
    13
100
AcDbCircle
 10
6160.231483
 20
5657.595697
 30
0.0
 40
7.0
100
AcDbArc
 50
270.0
 51
0.0
  0
ARC
  5
210
330
1F
100
AcDbEntity
  8
1
  6
PHANTOM
 62
   135
370
    13
100
AcDbCircle
 10
6174.431483
 20
5645.595697
 30
0.0
 40
3.00000000000003
100
AcDbArc
 50
270.0
 51
0.0
  0
ARC
  5
211
330
1F
100
AcDbEntity
  8
1
  6
PHANTOM
 62
   135
370
    13
100
AcDbCircle
 10
5800.731483
 20
5657.595697
 30
0.0
 40
7.0
100
AcDbArc
 50
180.0
 51
270.0
  0
ARC
  5
212
330
1F
100
AcDbEntity
  8
1
  6
PHANTOM
 62
   135
370
    13
100
AcDbCircle
 10
5800.731483
 20
6119.595697
 30
0.0
 40
7.0
100
AcDbArc
 50
90.0
 51
180.0
  0
ARC
  5
213
330
1F
100
AcDbEntity
  8
1
  6
Continuous
 62
   155
370
    25
100
AcDbCircle
 10
5829.831483
 20
5764.395697
 30
0.0
 40
11.25
100
AcDbArc
 50
294.951301
 51
335.048699
  0
ARC
  5
214
330
1F
100
AcDbEntity
  8
1
  6
Continuous
 62
   155
370
    25
100
AcDbCircle
 10
5829.831483
 20
5764.395697
 30
0.0
 40
11.25
100
AcDbArc
 50
204.951301
 51
245.048699
  0
ARC
  5
215
330
1F
100
AcDbEntity
  8
1
  6
Continuous
 62
   155
370
    25
100
AcDbCircle
 10
5829.831483
 20
5764.395697
 30
0.0
 40
11.25
100
AcDbArc
 50
114.951301
 51
155.048699
  0
ARC
  5
216
330
1F
100
AcDbEntity
  8
1
  6
Continuous
 62
   155
370
    25
100
AcDbCircle
 10
5829.831483
 20
5764.395697
 30
0.0
 40
11.25
100
AcDbArc
 50
24.951301
 51
65.048699
  0
CIRCLE
  5
217
330
1F
100
AcDbEntity
  8
1
  6
PHANTOM
 62
   135
370
    13
100
AcDbCircle
 10
6124.431483
 20
5688.595697
 30
0.0
 40
1.75
  0
CIRCLE
  5
218
330
1F
100
AcDbEntity
  8
1
  6
PHANTOM
 62
   135
370
    13
100
AcDbCircle
 10
6124.431483
 20
5713.595697
 30
0.0
 40
1.75
  0
CIRCLE
  5
219
330
1F
100
AcDbEntity
  8
1
  6
PHANTOM
 62
   135
370
    13
100
AcDbCircle
 10
6124.431483
 20
5813.595697
 30
0.0
 40
1.75
  0
CIRCLE
  5
21A
330
1F
100
AcDbEntity
  8
1
  6
PHANTOM
 62
   135
370
    13
100
AcDbCircle
 10
6124.431483
 20
5838.595697
 30
0.0
 40
1.75
  0
CIRCLE
  5
21B
330
1F
100
AcDbEntity
  8
1
  6
PHANTOM
 62
   135
370
    13
100
AcDbCircle
 10
6124.431483
 20
5863.595697
 30
0.0
 40
1.75
  0
CIRCLE
  5
21C
330
1F
100
AcDbEntity
  8
1
  6
PHANTOM
 62
   135
370
    13
100
AcDbCircle
 10
6124.431483
 20
5888.595697
 30
0.0
 40
1.75
  0
CIRCLE
  5
21D
330
1F
100
AcDbEntity
  8
1
  6
PHANTOM
 62
   135
370
    13
100
AcDbCircle
 10
6124.431483
 20
5913.595697
 30
0.0
 40
1.75
  0
CIRCLE
  5
21E
330
1F
100
AcDbEntity
  8
1
  6
PHANTOM
 62
   135
370
    13
100
AcDbCircle
 10
5816.531483
 20
5688.595697
 30
0.0
 40
1.75
  0
CIRCLE
  5
21F
330
1F
100
AcDbEntity
  8
1
  6
PHANTOM
 62
   135
370
    13
100
AcDbCircle
 10
5816.531483
 20
5713.595697
 30
0.0
 40
1.75
  0
CIRCLE
  5
220
330
1F
100
AcDbEntity
  8
1
  6
PHANTOM
 62
   135
370
    13
100
AcDbCircle
 10
5816.531483
 20
5813.595697
 30
0.0
 40
1.75
  0
CIRCLE
  5
221
330
1F
100
AcDbEntity
  8
1
  6
PHANTOM
 62
   135
370
    13
100
AcDbCircle
 10
5816.531483
 20
5838.595697
 30
0.0
 40
1.75
  0
CIRCLE
  5
222
330
1F
100
AcDbEntity
  8
1
  6
PHANTOM
 62
   135
370
    13
100
AcDbCircle
 10
5816.531483
 20
5863.595697
 30
0.0
 40
1.75
  0
CIRCLE
  5
223
330
1F
100
AcDbEntity
  8
1
  6
PHANTOM
 62
   135
370
    13
100
AcDbCircle
 10
5816.531483
 20
5888.595697
 30
0.0
 40
1.75
  0
CIRCLE
  5
224
330
1F
100
AcDbEntity
  8
1
  6
PHANTOM
 62
   135
370
    13
100
AcDbCircle
 10
5816.531483
 20
5913.595697
 30
0.0
 40
1.75
  0
ARC
  5
225
330
1F
100
AcDbEntity
  8
1
  6
Continuous
 62
   155
370
    25
100
AcDbCircle
 10
5829.831483
 20
6012.795697
 30
0.0
 40
11.25
100
AcDbArc
 50
294.951301
 51
335.048699
  0
ARC
  5
226
330
1F
100
AcDbEntity
  8
1
  6
Continuous
 62
   155
370
    25
100
AcDbCircle
 10
5829.831483
 20
6012.795697
 30
0.0
 40
11.25
100
AcDbArc
 50
204.951301
 51
245.048699
  0
ARC
  5
227
330
1F
100
AcDbEntity
  8
1
  6
Continuous
 62
   155
370
    25
100
AcDbCircle
 10
5829.831483
 20
6012.795697
 30
0.0
 40
11.25
100
AcDbArc
 50
114.951301
 51
155.048699
  0
ARC
  5
228
330
1F
100
AcDbEntity
  8
1
  6
Continuous
 62
   155
370
    13
100
AcDbCircle
 10
5786.531483
 20
6131.595697
 30
0.0
 40
4.200000000000058
100
AcDbArc
 50
90.0
 51
180.0
  0
ARC
  5
229
330
1F
100
AcDbEntity
  8
1
  6
Continuous
 62
   155
370
    13
100
AcDbCircle
 10
5786.531483
 20
5645.595697
 30
0.0
 40
4.200000000000002
100
AcDbArc
 50
180.0
 51
270.0
  0
ARC
  5
22A
330
1F
100
AcDbEntity
  8
1
  6
PHANTOM
 62
   135
370
    13
100
AcDbCircle
 10
5786.531483
 20
6131.595697
 30
0.0
 40
3.000000000000058
100
AcDbArc
 50
90.0
 51
180.0
  0
ARC
  5
22B
330
1F
100
AcDbEntity
  8
1
  6
PHANTOM
 62
   135
370
    13
100
AcDbCircle
 10
5786.531483
 20
5645.595697
 30
0.0
 40
3.000000000000003
100
AcDbArc
 50
180.0
 51
270.0
  0
ARC
  5
22C
330
1F
100
AcDbEntity
  8
1
  6
PHANTOM
 62
   135
370
    13
100
AcDbCircle
 10
6174.431483
 20
5645.595697
 30
0.0
 40
3.00000000000003
100
AcDbArc
 50
270.0
 51
0.0
  0
ARC
  5
22D
330
1F
100
AcDbEntity
  8
1
  6
PHANTOM
 62
   135
370
    13
100
AcDbCircle
 10
6174.431483
 20
6131.595697
 30
0.0
 40
3.000000000002029
100
AcDbArc
 50
0.0
 51
90.0
  0
ARC
  5
22E
330
1F
100
AcDbEntity
  8
1
  6
Continuous
 62
   155
370
    13
100
AcDbCircle
 10
6174.431483
 20
5645.595697
 30
0.0
 40
4.20000000000003
100
AcDbArc
 50
270.0
 51
0.0
  0
ARC
  5
22F
330
1F
100
AcDbEntity
  8
1
  6
Continuous
 62
   155
370
    13
100
AcDbCircle
 10
6174.431483
 20
6131.595697
 30
0.0
 40
4.200000000002029
100
AcDbArc
 50
0.0
 51
90.0
  0
CIRCLE
  5
230
330
1F
100
AcDbEntity
  8
1
  6
PHANTOM
 62
   135
370
    13
100
AcDbCircle
 10
5816.531483
 20
5938.595697
 30
0.0
 40
1.75
  0
CIRCLE
  5
231
330
1F
100
AcDbEntity
  8
1
  6
PHANTOM
 62
   135
370
    13
100
AcDbCircle
 10
5816.531483
 20
5963.595697
 30
0.0
 40
1.75
  0
CIRCLE
  5
232
330
1F
100
AcDbEntity
  8
1
  6
PHANTOM
 62
   135
370
    13
100
AcDbCircle
 10
5816.531483
 20
6063.595697
 30
0.0
 40
1.75
  0
CIRCLE
  5
233
330
1F
100
AcDbEntity
  8
1
  6
PHANTOM
 62
   135
370
    13
100
AcDbCircle
 10
5816.531483
 20
6088.595697
 30
0.0
 40
1.75
  0
CIRCLE
  5
234
330
1F
100
AcDbEntity
  8
1
  6
PHANTOM
 62
   135
370
    13
100
AcDbCircle
 10
6124.431483
 20
5938.595697
 30
0.0
 40
1.75
  0
CIRCLE
  5
235
330
1F
100
AcDbEntity
  8
1
  6
PHANTOM
 62
   135
370
    13
100
AcDbCircle
 10
6124.431483
 20
5963.595697
 30
0.0
 40
1.75
  0
CIRCLE
  5
236
330
1F
100
AcDbEntity
  8
1
  6
PHANTOM
 62
   135
370
    13
100
AcDbCircle
 10
6124.431483
 20
6063.595697
 30
0.0
 40
1.75
  0
CIRCLE
  5
237
330
1F
100
AcDbEntity
  8
1
  6
PHANTOM
 62
   135
370
    13
100
AcDbCircle
 10
6124.431483
 20
6088.595697
 30
0.0
 40
1.75
  0
ARC
  5
238
330
1F
100
AcDbEntity
  8
1
  6
PHANTOM
 62
   135
370
    13
100
AcDbCircle
 10
6172.531483
 20
5309.230261
 30
0.0
 40
2.55
100
AcDbArc
 50
4.692996
 51
258.635123
  0
ARC
  5
239
330
1F
100
AcDbEntity
  8
1
  6
PHANTOM
 62
   135
370
    13
100
AcDbCircle
 10
6174.431483
 20
5305.030261
 30
0.0
 40
1.0
100
AcDbArc
 50
270.0
 51
4.692996
  0
ARC
  5
23A
330
1F
100
AcDbEntity
  8
1
  6
PHANTOM
 62
   135
370
    13
100
AcDbCircle
 10
6129.631483
 20
5310.230261
 30
0.0
 40
2.8
100
AcDbArc
 50
0.0
 51
90.0
  0
ARC
  5
23B
330
1F
100
AcDbEntity
  8
1
  6
PHANTOM
 62
   135
370
    13
100
AcDbCircle
 10
6129.631483
 20
5310.230261
 30
0.0
 40
1.6
100
AcDbArc
 50
0.0
 51
90.0
  0
ARC
  5
23C
330
1F
100
AcDbEntity
  8
1
  6
PHANTOM
 62
   135
370
    13
100
AcDbCircle
 10
6134.031483
 20
5304.830261
 30
0.0
 40
1.6
100
AcDbArc
 50
180.0
 51
270.0
  0
ARC
  5
23D
330
1F
100
AcDbEntity
  8
1
  6
PHANTOM
 62
   135
370
    13
100
AcDbCircle
 10
5811.331483
 20
5310.230261
 30
0.0
 40
2.8
100
AcDbArc
 50
90.0
 51
180.0
  0
ARC
  5
23E
330
1F
100
AcDbEntity
  8
1
  6
PHANTOM
 62
   135
370
    13
100
AcDbCircle
 10
5806.931483
 20
5304.617548
 30
0.0
 40
1.6
100
AcDbArc
 50
299.881904
 51
0.0
  0
ARC
  5
23F
330
1F
100
AcDbEntity
  8
1
  6
PHANTOM
 62
   135
370
    13
100
AcDbCircle
 10
5811.331483
 20
5310.230261
 30
0.0
 40
1.6
100
AcDbArc
 50
90.0
 51
180.0
  0
ARC
  5
240
330
1F
100
AcDbEntity
  8
1
  6
PHANTOM
 62
   135
370
    13
100
AcDbCircle
 10
6160.231483
 20
5303.030261
 30
0.0
 40
7.0
100
AcDbArc
 50
0.0
 51
90.0
  0
ARC
  5
241
330
1F
100
AcDbEntity
  8
1
  6
PHANTOM
 62
   135
370
    13
100
AcDbCircle
 10
5800.731483
 20
5303.030261
 30
0.0
 40
6.999999999999551
100
AcDbArc
 50
0.0
 51
90.0
  0
ARC
  5
242
330
1F
100
AcDbEntity
  8
1
  6
PHANTOM
 62
   135
370
    13
100
AcDbCircle
 10
6160.231483
 20
5303.030261
 30
0.0
 40
6.999999999999822
100
AcDbArc
 50
90.0
 51
180.0
  0
ARC
  5
243
330
1F
100
AcDbEntity
  8
1
  6
PHANTOM
 62
   135
370
    13
100
AcDbCircle
 10
5800.731483
 20
5303.030261
 30
0.0
 40
7.0
100
AcDbArc
 50
90.0
 51
180.0
  0
ARC
  5
244
330
1F
100
AcDbEntity
  8
1
  6
PHANTOM
 62
   135
370
    13
100
AcDbCircle
 10
6175.831483
 20
5303.630261
 30
0.0
 40
1.6
100
AcDbArc
 50
270.0
 51
0.0
  0
ARC
  5
245
330
1F
100
AcDbEntity
  8
1
  6
PHANTOM
 62
   135
370
    13
100
AcDbCircle
 10
5785.131483
 20
5303.630261
 30
0.0
 40
1.6
100
AcDbArc
 50
180.0
 51
270.0
  0
ARC
  5
246
330
1F
100
AcDbEntity
  8
1
  6
PHANTOM
 62
   135
370
    13
100
AcDbCircle
 10
6174.431483
 20
5305.030261
 30
0.0
 40
3.0
100
AcDbArc
 50
270.0
 51
0.0
  0
ARC
  5
247
330
1F
100
AcDbEntity
  8
1
  6
PHANTOM
 62
   135
370
    13
100
AcDbCircle
 10
6172.531483
 20
5309.230261
 30
0.0
 40
4.55
100
AcDbArc
 50
5.043502
 51
258.591533
  0
ARC
  5
248
330
1F
100
AcDbEntity
  8
1
  6
Continuous
 62
   155
370
    25
100
AcDbCircle
 10
6175.831483
 20
5303.630261
 30
0.0
 40
2.8
100
AcDbArc
 50
270.0
 51
0.0
  0
ARC
  5
249
330
1F
100
AcDbEntity
  8
1
  6
Continuous
 62
   155
370
    25
100
AcDbCircle
 10
5785.131483
 20
5303.630261
 30
0.0
 40
2.8
100
AcDbArc
 50
180.0
 51
270.0
  0
ARC
  5
24A
330
1F
100
AcDbEntity
  8
1
  6
PHANTOM
 62
   135
370
    13
100
AcDbCircle
 10
6491.486875
 20
5657.595697
 30
0.0
 40
7.0
100
AcDbArc
 50
180.0
 51
270.0
  0
ARC
  5
24B
330
1F
100
AcDbEntity
  8
1
  6
PHANTOM
 62
   135
370
    13
100
AcDbCircle
 10
6491.486875
 20
5657.595697
 30
0.0
 40
7.000000000000035
100
AcDbArc
 50
90.0
 51
180.0
  0
ARC
  5
24C
330
1F
100
AcDbEntity
  8
1
  6
PHANTOM
 62
   135
370
    13
100
AcDbCircle
 10
6491.486875
 20
6119.595697
 30
0.0
 40
6.99999999999954
100
AcDbArc
 50
180.0
 51
270.0
  0
ARC
  5
24D
330
1F
100
AcDbEntity
  8
1
  6
PHANTOM
 62
   135
370
    13
100
AcDbCircle
 10
6491.486875
 20
6119.595697
 30
0.0
 40
7.0
100
AcDbArc
 50
90.0
 51
180.0
  0
ARC
  5
24E
330
1F
100
AcDbEntity
  8
1
  6
PHANTOM
 62
   135
370
    13
100
AcDbCircle
 10
6490.886875
 20
6132.995697
 30
0.0
 40
1.6
100
AcDbArc
 50
0.0
 51
90.0
  0
ARC
  5
24F
330
1F
100
AcDbEntity
  8
1
  6
PHANTOM
 62
   135
370
    13
100
AcDbCircle
 10
6490.886875
 20
5644.195697
 30
0.0
 40
1.6
100
AcDbArc
 50
270.0
 51
360.0
  0
ARC
  5
250
330
1F
100
AcDbEntity
  8
1
  6
Continuous
 62
   155
370
    25
100
AcDbCircle
 10
6490.886875
 20
5644.195697
 30
0.0
 40
2.8
100
AcDbArc
 50
270.0
 51
0.0
  0
ARC
  5
251
330
1F
100
AcDbEntity
  8
1
  6
Continuous
 62
   155
370
    25
100
AcDbCircle
 10
6490.886875
 20
6132.995697
 30
0.0
 40
2.8
100
AcDbArc
 50
0.0
 51
90.0
  0
ARC
  5
252
330
1F
100
AcDbEntity
  8
1
  6
Continuous
 62
   155
370
    25
100
AcDbCircle
 10
5343.228328
 20
6012.795697
 30
0.0
 40
11.25
100
AcDbArc
 50
114.951301
 51
155.048699
  0
ARC
  5
253
330
1F
100
AcDbEntity
  8
1
  6
Continuous
 62
   155
370
    25
100
AcDbCircle
 10
5343.228328
 20
6012.795697
 30
0.0
 40
11.25
100
AcDbArc
 50
24.951301
 51
65.048699
  0
ARC
  5
254
330
1F
100
AcDbEntity
  8
1
  6
Continuous
 62
   155
370
    25
100
AcDbCircle
 10
5343.228328
 20
6012.795697
 30
0.0
 40
11.25
100
AcDbArc
 50
294.951301
 51
335.048699
  0
ARC
  5
255
330
1F
100
AcDbEntity
  8
1
  6
Continuous
 62
   155
370
    25
100
AcDbCircle
 10
5343.228328
 20
6012.795697
 30
0.0
 40
11.25
100
AcDbArc
 50
204.951301
 51
245.048699
  0
ARC
  5
256
330
1F
100
AcDbEntity
  8
1
  6
Continuous
 62
   155
370
    25
100
AcDbCircle
 10
5372.328328
 20
5657.595697
 30
0.0
 40
7.0
100
AcDbArc
 50
270.0
 51
0.0
  0
ARC
  5
257
330
1F
100
AcDbEntity
  8
1
  6
Continuous
 62
   155
370
    25
100
AcDbCircle
 10
5372.328328
 20
6119.595697
 30
0.0
 40
7.0
100
AcDbArc
 50
0.0
 51
90.0
  0
ARC
  5
258
330
1F
100
AcDbEntity
  8
1
  6
Continuous
 62
   155
370
    25
100
AcDbCircle
 10
5012.828328
 20
5657.595697
 30
0.0
 40
7.0
100
AcDbArc
 50
180.0
 51
270.0
  0
ARC
  5
259
330
1F
100
AcDbEntity
  8
1
  6
Continuous
 62
   155
370
    25
100
AcDbCircle
 10
5012.828328
 20
6119.595697
 30
0.0
 40
7.0
100
AcDbArc
 50
90.0
 51
180.0
  0
CIRCLE
  5
25A
330
1F
100
AcDbEntity
  8
1
  6
Continuous
 62
   155
370
    25
100
AcDbCircle
 10
5048.628328
 20
5938.595697
 30
0.0
 40
1.75
  0
CIRCLE
  5
25B
330
1F
100
AcDbEntity
  8
1
  6
Continuous
 62
   155
370
    25
100
AcDbCircle
 10
5048.628328
 20
5963.595697
 30
0.0
 40
1.75
  0
CIRCLE
  5
25C
330
1F
100
AcDbEntity
  8
1
  6
Continuous
 62
   155
370
    25
100
AcDbCircle
 10
5048.628328
 20
6063.595697
 30
0.0
 40
1.75
  0
CIRCLE
  5
25D
330
1F
100
AcDbEntity
  8
1
  6
Continuous
 62
   155
370
    25
100
AcDbCircle
 10
5048.628328
 20
6088.595697
 30
0.0
 40
1.75
  0
CIRCLE
  5
25E
330
1F
100
AcDbEntity
  8
1
  6
Continuous
 62
   155
370
    25
100
AcDbCircle
 10
5356.528328
 20
5938.595697
 30
0.0
 40
1.75
  0
ARC
  5
25F
330
1F
100
AcDbEntity
  8
1
  6
Continuous
 62
   155
370
    25
100
AcDbCircle
 10
5343.228328
 20
5764.395697
 30
0.0
 40
11.25
100
AcDbArc
 50
114.951301
 51
155.048699
  0
ARC
  5
260
330
1F
100
AcDbEntity
  8
1
  6
Continuous
 62
   155
370
    25
100
AcDbCircle
 10
5343.228328
 20
5764.395697
 30
0.0
 40
11.25
100
AcDbArc
 50
204.951301
 51
245.048699
  0
ARC
  5
261
330
1F
100
AcDbEntity
  8
1
  6
Continuous
 62
   155
370
    25
100
AcDbCircle
 10
5343.228328
 20
5764.395697
 30
0.0
 40
11.25
100
AcDbArc
 50
24.951301
 51
65.048699
  0
ARC
  5
262
330
1F
100
AcDbEntity
  8
1
  6
Continuous
 62
   155
370
    25
100
AcDbCircle
 10
5343.228328
 20
5764.395697
 30
0.0
 40
11.25
100
AcDbArc
 50
294.951301
 51
335.048699
  0
CIRCLE
  5
263
330
1F
100
AcDbEntity
  8
1
  6
Continuous
 62
   155
370
    25
100
AcDbCircle
 10
5356.528328
 20
5963.595697
 30
0.0
 40
1.75
  0
CIRCLE
  5
264
330
1F
100
AcDbEntity
  8
1
  6
Continuous
 62
   155
370
    25
100
AcDbCircle
 10
5356.528328
 20
6063.595697
 30
0.0
 40
1.75
  0
CIRCLE
  5
265
330
1F
100
AcDbEntity
  8
1
  6
Continuous
 62
   155
370
    25
100
AcDbCircle
 10
5356.528328
 20
6088.595697
 30
0.0
 40
1.75
  0
ARC
  5
266
330
1F
100
AcDbEntity
  8
1
  6
Continuous
 62
   155
370
    25
100
AcDbCircle
 10
5386.528328
 20
6131.595697
 30
0.0
 40
4.200000000000058
100
AcDbArc
 50
360.0
 51
90.0
  0
ARC
  5
267
330
1F
100
AcDbEntity
  8
1
  6
Continuous
 62
   155
370
    25
100
AcDbCircle
 10
4998.628328
 20
5645.595697
 30
0.0
 40
4.20000000000003
100
AcDbArc
 50
180.0
 51
270.0
  0
ARC
  5
268
330
1F
100
AcDbEntity
  8
1
  6
Continuous
 62
   155
370
    25
100
AcDbCircle
 10
4998.628328
 20
6131.595697
 30
0.0
 40
4.200000000002029
100
AcDbArc
 50
90.0
 51
180.0
  0
ARC
  5
269
330
1F
100
AcDbEntity
  8
1
  6
Continuous
 62
   155
370
    25
100
AcDbCircle
 10
5386.528328
 20
5645.595697
 30
0.0
 40
4.200000000000002
100
AcDbArc
 50
270.0
 51
360.0
  0
CIRCLE
  5
26A
330
1F
100
AcDbEntity
  8
1
  6
Continuous
 62
   155
370
    25
100
AcDbCircle
 10
5060.628328
 20
5732.595697
 30
0.0
 40
3.0
  0
ARC
  5
26B
330
1F
100
AcDbEntity
  8
1
  6
Continuous
 62
   155
370
    13
100
AcDbCircle
 10
5386.528328
 20
6131.595697
 30
0.0
 40
3.000000000000058
100
AcDbArc
 50
0.0
 51
90.0
  0
ARC
  5
26C
330
1F
100
AcDbEntity
  8
1
  6
Continuous
 62
   155
370
    13
100
AcDbCircle
 10
5386.528328
 20
5645.595697
 30
0.0
 40
3.000000000000003
100
AcDbArc
 50
270.0
 51
0.0
  0
ARC
  5
26D
330
1F
100
AcDbEntity
  8
1
  6
Continuous
 62
   155
370
    13
100
AcDbCircle
 10
4998.628328
 20
5645.595697
 30
0.0
 40
3.00000000000003
100
AcDbArc
 50
180.0
 51
270.0
  0
ARC
  5
26E
330
1F
100
AcDbEntity
  8
1
  6
Continuous
 62
   155
370
    13
100
AcDbCircle
 10
4998.628328
 20
6131.595697
 30
0.0
 40
3.000000000002029
100
AcDbArc
 50
90.0
 51
180.0
  0
CIRCLE
  5
26F
330
1F
100
AcDbEntity
  8
1
  6
Continuous
 62
   155
370
    25
100
AcDbCircle
 10
5048.628328
 20
5688.595697
 30
0.0
 40
1.75
  0
CIRCLE
  5
270
330
1F
100
AcDbEntity
  8
1
  6
Continuous
 62
   155
370
    25
100
AcDbCircle
 10
5048.628328
 20
5713.595697
 30
0.0
 40
1.75
  0
CIRCLE
  5
271
330
1F
100
AcDbEntity
  8
1
  6
Continuous
 62
   155
370
    25
100
AcDbCircle
 10
5048.628328
 20
5813.595697
 30
0.0
 40
1.75
  0
CIRCLE
  5
272
330
1F
100
AcDbEntity
  8
1
  6
Continuous
 62
   155
370
    25
100
AcDbCircle
 10
5048.628328
 20
5838.595697
 30
0.0
 40
1.75
  0
CIRCLE
  5
273
330
1F
100
AcDbEntity
  8
1
  6
Continuous
 62
   155
370
    25
100
AcDbCircle
 10
5048.628328
 20
5863.595697
 30
0.0
 40
1.75
  0
CIRCLE
  5
274
330
1F
100
AcDbEntity
  8
1
  6
Continuous
 62
   155
370
    25
100
AcDbCircle
 10
5048.628328
 20
5888.595697
 30
0.0
 40
1.75
  0
CIRCLE
  5
275
330
1F
100
AcDbEntity
  8
1
  6
Continuous
 62
   155
370
    25
100
AcDbCircle
 10
5048.628328
 20
5913.595697
 30
0.0
 40
1.75
  0
CIRCLE
  5
276
330
1F
100
AcDbEntity
  8
1
  6
Continuous
 62
   155
370
    25
100
AcDbCircle
 10
5356.528328
 20
5688.595697
 30
0.0
 40
1.75
  0
CIRCLE
  5
277
330
1F
100
AcDbEntity
  8
1
  6
Continuous
 62
   155
370
    25
100
AcDbCircle
 10
5356.528328
 20
5713.595697
 30
0.0
 40
1.75
  0
CIRCLE
  5
278
330
1F
100
AcDbEntity
  8
1
  6
Continuous
 62
   155
370
    25
100
AcDbCircle
 10
5356.528328
 20
5813.595697
 30
0.0
 40
1.75
  0
CIRCLE
  5
279
330
1F
100
AcDbEntity
  8
1
  6
Continuous
 62
   155
370
    25
100
AcDbCircle
 10
5356.528328
 20
5838.595697
 30
0.0
 40
1.75
  0
CIRCLE
  5
27A
330
1F
100
AcDbEntity
  8
1
  6
Continuous
 62
   155
370
    25
100
AcDbCircle
 10
5356.528328
 20
5863.595697
 30
0.0
 40
1.75
  0
CIRCLE
  5
27B
330
1F
100
AcDbEntity
  8
1
  6
Continuous
 62
   155
370
    25
100
AcDbCircle
 10
5356.528328
 20
5888.595697
 30
0.0
 40
1.75
  0
CIRCLE
  5
27C
330
1F
100
AcDbEntity
  8
1
  6
Continuous
 62
   155
370
    25
100
AcDbCircle
 10
5356.528328
 20
5913.595697
 30
0.0
 40
1.75
  0
MTEXT
  5
27D
330
1F
100
AcDbEntity
  8
1
  6
Continuous
 62
    35
370
    13
100
AcDbMText
 10
5837.891459
 20
6957.602461
 30
0.0
 40
70.0
 41
0.0
 46
0.0
 71
     7
 72
     5
  1
\fArial|b0|i0;\W1.1044;WEB PO5040
  7
Arial
 73
     2
 44
1.047437
  0
ENDSEC
  0
SECTION
  2
OBJECTS
  0
DICTIONARY
  5
C
330
0
100
AcDbDictionary
281
     1
  3
ACAD_DETAILVIEWSTYLE
350
2C6
  3
ACAD_GROUP
350
D
  3
ACAD_IMAGE_VARS
350
5E
  3
ACAD_LAYOUT
350
1A
  3
ACAD_MATERIAL
350
43
  3
ACAD_MLEADERSTYLE
350
5B
  3
ACAD_MLINESTYLE
350
17
  3
ACAD_PLOTSETTINGS
350
19
  3
ACAD_PLOTSTYLENAME
350
E
  3
ACAD_SCALELIST
350
47
  3
ACAD_SECTIONVIEWSTYLE
350
2C7
  3
ACAD_TABLESTYLE
350
59
  3
ACAD_VISUALSTYLE
350
2A
  3
ACDB_RECOMPOSE_DATA
350
2C3
  3
AcDbVariableDictionary
350
28F
  0
SUN
  5
5D
330
29
100
AcDbSun
 90
        1
290
     0
 63
     7
421
 16777215
 40
1.0
291
     1
 91
  2455826
 92
 54000000
292
     0
 70
     2
 71
   256
280
     1
  0
DICTIONARY
  5
2C6
102
{ACAD_REACTORS
330
C
102
}
330
C
100
AcDbDictionary
281
     1
  0
DICTIONARY
  5
D
102
{ACAD_REACTORS
330
C
102
}
330
C
100
AcDbDictionary
281
     1
  0
RASTERVARIABLES
  5
5E
102
{ACAD_REACTORS
330
C
102
}
330
C
100
AcDbRasterVariables
 90
        0
 70
     0
 71
     1
 72
     1
  0
DICTIONARY
  5
1A
102
{ACAD_REACTORS
330
C
102
}
330
C
100
AcDbDictionary
281
     1
  3
Layout1
350
1E
  3
Layout2
350
26
  3
Model
350
22
  0
DICTIONARY
  5
43
102
{ACAD_REACTORS
330
C
102
}
330
C
100
AcDbDictionary
281
     1
  3
ByBlock
350
45
  3
ByLayer
350
44
  3
Global
350
46
  0
DICTIONARY
  5
5B
102
{ACAD_REACTORS
330
C
102
}
330
C
100
AcDbDictionary
281
     1
  3
Standard
350
5C
  0
DICTIONARY
  5
17
102
{ACAD_REACTORS
330
C
102
}
330
C
100
AcDbDictionary
281
     1
  3
Standard
350
18
  0
DICTIONARY
  5
19
102
{ACAD_REACTORS
330
C
102
}
330
C
100
AcDbDictionary
281
     1
  0
ACDBDICTIONARYWDFLT
  5
E
102
{ACAD_REACTORS
330
C
102
}
330
C
100
AcDbDictionary
281
     1
  3
Normal
350
F
100
AcDbDictionaryWithDefault
340
F
  0
DICTIONARY
  5
47
102
{ACAD_REACTORS
330
C
102
}
330
C
100
AcDbDictionary
281
     1
  3
A0
350
48
  3
A1
350
49
  3
A2
350
4A
  3
A3
350
4B
  3
A4
350
4C
  3
A5
350
4D
  3
A6
350
4E
  3
A7
350
4F
  3
A8
350
50
  3
A9
350
51
  3
B1
350
52
  3
B2
350
53
  3
B3
350
54
  3
B4
350
55
  3
B5
350
56
  3
B6
350
57
  3
B7
350
58
  0
DICTIONARY
  5
2C7
102
{ACAD_REACTORS
330
C
102
}
330
C
100
AcDbDictionary
281
     1
  0
DICTIONARY
  5
59
102
{ACAD_REACTORS
330
C
102
}
330
C
100
AcDbDictionary
281
     1
  3
Standard
350
5A
  0
DICTIONARY
  5
2A
102
{ACAD_REACTORS
330
C
102
}
330
C
100
AcDbDictionary
281
     1
  3
2dWireframe
350
2F
  3
Basic
350
32
  3
Brighten
350
36
  3
ColorChange
350
3A
  3
Conceptual
350
34
  3
Dim
350
35
  3
EdgeColorOff
350
3D
  3
Facepattern
350
39
  3
Flat
350
2B
  3
FlatWithEdges
350
2C
  3
Gouraud
350
2D
  3
GouraudWithEdges
350
2E
  3
Hidden
350
31
  3
JitterOff
350
3B
  3
Linepattern
350
38
  3
OverhangOff
350
3C
  3
Realistic
350
33
  3
Shaded
350
42
  3
Shaded with edges
350
41
  3
Shades of Gray
350
3E
  3
Sketchy
350
3F
  3
Thicken
350
37
  3
Wireframe
350
30
  3
X-Ray
350
40
  0
XRECORD
  5
2C3
102
{ACAD_REACTORS
330
C
102
}
330
C
100
AcDbXrecord
280
     1
 90
        1
330
5A
  0
DICTIONARY
  5
28F
102
{ACAD_REACTORS
330
C
102
}
330
C
100
AcDbDictionary
281
     1
  3
CANNOSCALE
350
290
  3
CMLEADERSTYLE
350
2C5
  3
CTABLESTYLE
350
2C4
  0
LAYOUT
  5
1E
102
{ACAD_REACTORS
330
1A
102
}
330
1A
100
AcDbPlotSettings
  1

  2
none_device
  4

  6

 40
0.0
 41
0.0
 42
0.0
 43
0.0
 44
0.0
 45
0.0
 46
0.0
 47
0.0
 48
0.0
 49
0.0
140
0.0
141
0.0
142
1.0
143
1.0
 70
   688
 72
     0
 73
     0
 74
     5
  7

 75
    16
 76
     0
 77
     2
 78
   300
147
1.0
148
0.0
149
0.0
100
AcDbLayout
  1
Layout1
 70
     1
 71
     1
 10
-0.5
 20
-0.5
 11
5.0
 21
5.0
 12
0.0
 22
0.0
 32
0.0
 14
-0.5
 24
-0.5
 34
-0.5
 15
5.0
 25
5.0
 35
5.0
146
0.0
 13
0.0
 23
0.0
 33
0.0
 16
1.0
 26
0.0
 36
0.0
 17
0.0
 27
1.0
 37
0.0
 76
     0
330
1B
  0
LAYOUT
  5
26
102
{ACAD_REACTORS
330
1A
102
}
330
1A
100
AcDbPlotSettings
  1

  2
none_device
  4

  6

 40
0.0
 41
0.0
 42
0.0
 43
0.0
 44
0.0
 45
0.0
 46
0.0
 47
0.0
 48
0.0
 49
0.0
140
0.0
141
0.0
142
1.0
143
1.0
 70
   688
 72
     0
 73
     0
 74
     5
  7

 75
    16
 76
     0
 77
     2
 78
   300
147
1.0
148
0.0
149
0.0
100
AcDbLayout
  1
Layout2
 70
     1
 71
     2
 10
0.0
 20
0.0
 11
0.0
 21
0.0
 12
0.0
 22
0.0
 32
0.0
 14
0.0
 24
0.0
 34
0.0
 15
0.0
 25
0.0
 35
0.0
146
0.0
 13
0.0
 23
0.0
 33
0.0
 16
1.0
 26
0.0
 36
0.0
 17
0.0
 27
1.0
 37
0.0
 76
     0
330
23
  0
LAYOUT
  5
22
102
{ACAD_REACTORS
330
1A
102
}
330
1A
100
AcDbPlotSettings
  1

  2
none_device
  4
Letter_(8.50_x_11.00_Inches)
  6

 40
6.35
 41
6.35
 42
6.350005
 43
6.350005
 44
215.9
 45
279.4
 46
0.0
 47
0.0
 48
0.0
 49
0.0
140
0.0
141
0.0
142
1.0
143
1.0
 70
  1712
 72
     0
 73
     0
 74
     0
  7

 75
     0
 76
     0
 77
     2
 78
   300
147
1.0
148
0.0
149
0.0
100
AcDbLayout
  1
Model
 70
     1
 71
     0
 10
-0.5
 20
-0.5
 11
5.0
 21
5.0
 12
0.0
 22
0.0
 32
0.0
 14
-0.5
 24
-0.5
 34
-0.5
 15
5.0
 25
5.0
 35
5.0
146
0.0
 13
0.0
 23
0.0
 33
0.0
 16
1.0
 26
0.0
 36
0.0
 17
0.0
 27
1.0
 37
0.0
 76
     0
330
1F
331
29
  0
MATERIAL
  5
45
102
{ACAD_REACTORS
330
43
102
}
330
43
100
AcDbMaterial
  1
ByBlock
 72
     1
 94
      127
  0
MATERIAL
  5
44
102
{ACAD_REACTORS
330
43
102
}
330
43
100
AcDbMaterial
  1
ByLayer
 72
     1
 94
      127
  0
MATERIAL
  5
46
102
{ACAD_REACTORS
330
43
102
}
330
43
100
AcDbMaterial
  1
Global
 72
     1
 94
      127
  0
MLEADERSTYLE
  5
5C
102
{ACAD_REACTORS
330
5B
102
}
330
5B
100
AcDbMLeaderStyle
179
     2
170
     2
171
     1
172
     0
 90
        2
 40
0.0
 41
0.0
173
     1
 91
-1056964608
340
14
 92
       -2
290
     1
 42
0.09
291
     1
 43
0.36
  3
Standard
341
0
 44
0.18
300

342
11
174
     1
178
     6
175
     1
176
     0
 93
-1056964608
 45
0.18
292
     0
297
     0
 46
0.18
343
0
 94
-1056964608
 47
1.0
 49
1.0
140
1.0
293
     1
141
0.0
294
     1
177
     0
142
1.0
295
     0
296
     0
143
0.125
271
     0
272
     9
273
     9
  0
MLINESTYLE
  5
18
102
{ACAD_REACTORS
330
17
102
}
330
17
100
AcDbMlineStyle
  2
Standard
 70
     0
  3

 62
   256
 51
90.0
 52
90.0
 71
     2
 49
0.5
 62
   256
  6
BYLAYER
 49
-0.5
 62
   256
  6
BYLAYER
  0
ACDBPLACEHOLDER
  5
F
102
{ACAD_REACTORS
330
E
102
}
330
E
  0
SCALE
  5
48
102
{ACAD_REACTORS
330
47
102
}
330
47
100
AcDbScale
 70
     0
300
1:1
140
1.0
141
1.0
290
     1
  0
SCALE
  5
49
102
{ACAD_REACTORS
330
47
102
}
330
47
100
AcDbScale
 70
     0
300
1/128" = 1'-0"
140
0.007813
141
12.0
290
     0
  0
SCALE
  5
4A
102
{ACAD_REACTORS
330
47
102
}
330
47
100
AcDbScale
 70
     0
300
1/64" = 1'-0"
140
0.015625
141
12.0
290
     0
  0
SCALE
  5
4B
102
{ACAD_REACTORS
330
47
102
}
330
47
100
AcDbScale
 70
     0
300
1/32" = 1'-0"
140
0.03125
141
12.0
290
     0
  0
SCALE
  5
4C
102
{ACAD_REACTORS
330
47
102
}
330
47
100
AcDbScale
 70
     0
300
1/16" = 1'-0"
140
0.0625
141
12.0
290
     0
  0
SCALE
  5
4D
102
{ACAD_REACTORS
330
47
102
}
330
47
100
AcDbScale
 70
     0
300
3/32" = 1'-0"
140
0.09375
141
12.0
290
     0
  0
SCALE
  5
4E
102
{ACAD_REACTORS
330
47
102
}
330
47
100
AcDbScale
 70
     0
300
1/8" = 1'-0"
140
0.125
141
12.0
290
     0
  0
SCALE
  5
4F
102
{ACAD_REACTORS
330
47
102
}
330
47
100
AcDbScale
 70
     0
300
3/16" = 1'-0"
140
0.1875
141
12.0
290
     0
  0
SCALE
  5
50
102
{ACAD_REACTORS
330
47
102
}
330
47
100
AcDbScale
 70
     0
300
1/4" = 1'-0"
140
0.25
141
12.0
290
     0
  0
SCALE
  5
51
102
{ACAD_REACTORS
330
47
102
}
330
47
100
AcDbScale
 70
     0
300
3/8" = 1'-0"
140
0.375
141
12.0
290
     0
  0
SCALE
  5
52
102
{ACAD_REACTORS
330
47
102
}
330
47
100
AcDbScale
 70
     0
300
1/2" = 1'-0"
140
0.5
141
12.0
290
     0
  0
SCALE
  5
53
102
{ACAD_REACTORS
330
47
102
}
330
47
100
AcDbScale
 70
     0
300
3/4" = 1'-0"
140
0.75
141
12.0
290
     0
  0
SCALE
  5
54
102
{ACAD_REACTORS
330
47
102
}
330
47
100
AcDbScale
 70
     0
300
1" = 1'-0"
140
1.0
141
12.0
290
     0
  0
SCALE
  5
55
102
{ACAD_REACTORS
330
47
102
}
330
47
100
AcDbScale
 70
     0
300
1-1/2" = 1'-0"
140
1.5
141
12.0
290
     0
  0
SCALE
  5
56
102
{ACAD_REACTORS
330
47
102
}
330
47
100
AcDbScale
 70
     0
300
3" = 1'-0"
140
3.0
141
12.0
290
     0
  0
SCALE
  5
57
102
{ACAD_REACTORS
330
47
102
}
330
47
100
AcDbScale
 70
     0
300
6" = 1'-0"
140
6.0
141
12.0
290
     0
  0
SCALE
  5
58
102
{ACAD_REACTORS
330
47
102
}
330
47
100
AcDbScale
 70
     0
300
1'-0" = 1'-0"
140
12.0
141
12.0
290
     0
  0
TABLESTYLE
  5
5A
102
{ACAD_REACTORS
330
59
102
}
102
{ACAD_XDICTIONARY
360
2C1
102
}
330
59
100
AcDbTableStyle
  3
Standard
 70
     0
 71
     0
 40
0.06
 41
0.06
280
     0
281
     0
  7
Standard
140
0.18
170
     2
 62
     0
 63
   257
283
     0
 90
        4
 91
        0
  1

274
    -2
284
     1
 64
     0
275
    -2
285
     1
 65
     0
276
    -2
286
     1
 66
     0
277
    -2
287
     1
 67
     0
278
    -2
288
     1
 68
     0
279
    -2
289
     1
 69
     0
  7
Standard
140
0.25
170
     5
 62
     0
 63
   257
283
     0
 90
        4
 91
        0
  1

274
    -2
284
     1
 64
     0
275
    -2
285
     1
 65
     0
276
    -2
286
     1
 66
     0
277
    -2
287
     1
 67
     0
278
    -2
288
     1
 68
     0
279
    -2
289
     1
 69
     0
  7
Standard
140
0.18
170
     5
 62
     0
 63
   257
283
     0
 90
        4
 91
        0
  1

274
    -2
284
     1
 64
     0
275
    -2
285
     1
 65
     0
276
    -2
286
     1
 66
     0
277
    -2
287
     1
 67
     0
278
    -2
288
     1
 68
     0
279
    -2
289
     1
 69
     0
  0
VISUALSTYLE
  5
2F
102
{ACAD_REACTORS
330
2A
102
}
102
{ACAD_XDICTIONARY
360
299
102
}
330
2A
100
AcDbVisualStyle
  2
2dWireframe
 70
     4
177
     2
291
     0
 71
     0
176
     1
 72
     2
176
     1
 73
     0
176
     1
 90
        0
176
     1
 40
0.6
176
     1
 41
30.0
176
     1
 62
     5
 63
     7
421
 16777215
176
     1
 74
     1
176
     1
 91
        4
176
     1
 64
     7
176
     1
 65
   257
176
     1
 75
     1
176
     1
175
     1
176
     1
 42
1.0
176
     1
 92
        0
176
     1
 66
   257
176
     1
 43
1.0
176
     1
 76
     1
176
     1
 77
     6
176
     1
 78
     2
176
     1
 67
     7
176
     1
 79
     5
176
     1
170
     0
176
     1
171
     0
176
     1
290
     0
176
     1
 93
        1
176
     1
 44
0.0
176
     1
173
     0
176
     1
  0
VISUALSTYLE
  5
32
102
{ACAD_REACTORS
330
2A
102
}
102
{ACAD_XDICTIONARY
360
29F
102
}
330
2A
100
AcDbVisualStyle
  2
Basic
 70
     7
177
     2
291
     1
 71
     1
176
     1
 72
     0
176
     1
 73
     1
176
     1
 90
        0
176
     1
 40
0.6
176
     1
 41
30.0
176
     1
 62
     5
 63
     7
421
 16777215
176
     1
 74
     0
176
     1
 91
        4
176
     1
 64
     7
176
     1
 65
   257
176
     1
 75
     1
176
     1
175
     1
176
     1
 42
1.0
176
     1
 92
        8
176
     1
 66
     7
176
     1
 43
1.0
176
     1
 76
     1
176
     1
 77
     6
176
     1
 78
     2
176
     1
 67
     7
176
     1
 79
     5
176
     1
170
     0
176
     1
171
     0
176
     1
290
     0
176
     1
 93
        1
176
     1
 44
0.0
176
     1
173
     0
176
     1
  0
VISUALSTYLE
  5
36
102
{ACAD_REACTORS
330
2A
102
}
102
{ACAD_XDICTIONARY
360
2A7
102
}
330
2A
100
AcDbVisualStyle
  2
Brighten
 70
    12
177
     2
291
     1
 71
     2
176
     1
 72
     2
176
     1
 73
     0
176
     1
 90
        0
176
     1
 40
0.6
176
     1
 41
30.0
176
     1
 62
     5
 63
     7
421
 16777215
176
     1
 74
     1
176
     1
 91
        4
176
     1
 64
     7
176
     1
 65
   257
176
     1
 75
     1
176
     1
175
     1
176
     1
 42
1.0
176
     1
 92
        8
176
     1
 66
     7
176
     1
 43
1.0
176
     1
 76
     1
176
     1
 77
     6
176
     1
 78
     2
176
     1
 67
     7
176
     1
 79
     5
176
     1
170
     0
176
     1
171
     0
176
     1
290
     0
176
     1
 93
        1
176
     1
 44
50.0
176
     1
173
     0
176
     1
  0
VISUALSTYLE
  5
3A
102
{ACAD_REACTORS
330
2A
102
}
102
{ACAD_XDICTIONARY
360
2AF
102
}
330
2A
100
AcDbVisualStyle
  2
ColorChange
 70
    16
177
     2
291
     1
 71
     2
176
     1
 72
     2
176
     1
 73
     3
176
     1
 90
        0
176
     1
 40
0.6
176
     1
 41
30.0
176
     1
 62
     5
 63
     8
421
  8421504
176
     1
 74
     1
176
     1
 91
        4
176
     1
 64
     7
176
     1
 65
   257
176
     1
 75
     1
176
     1
175
     1
176
     1
 42
1.0
176
     1
 92
        8
176
     1
 66
     8
424
  8421504
176
     1
 43
1.0
176
     1
 76
     1
176
     1
 77
     6
176
     1
 78
     2
176
     1
 67
     7
176
     1
 79
     5
176
     1
170
     0
176
     1
171
     0
176
     1
290
     0
176
     1
 93
        1
176
     1
 44
0.0
176
     1
173
     0
176
     1
  0
VISUALSTYLE
  5
34
102
{ACAD_REACTORS
330
2A
102
}
102
{ACAD_XDICTIONARY
360
2A3
102
}
330
2A
100
AcDbVisualStyle
  2
Conceptual
 70
     9
177
     2
291
     0
 71
     3
176
     1
 72
     2
176
     1
 73
     0
176
     1
 90
        0
176
     1
 40
0.6
176
     1
 41
30.0
176
     1
 62
     5
 63
     7
421
 16777215
176
     1
 74
     2
176
     1
 91
        2
176
     1
 64
     7
176
     1
 65
   257
176
     1
 75
     1
176
     1
175
     1
176
     1
 42
179.0
176
     1
 92
        8
176
     1
 66
     7
176
     1
 43
1.0
176
     1
 76
     1
176
     1
 77
     6
176
     1
 78
     2
176
     1
 67
     7
176
     1
 79
     3
176
     1
170
     0
176
     1
171
     0
176
     1
290
     0
176
     1
 93
        1
176
     1
 44
0.0
176
     1
173
     0
176
     1
  0
VISUALSTYLE
  5
35
102
{ACAD_REACTORS
330
2A
102
}
102
{ACAD_XDICTIONARY
360
2A5
102
}
330
2A
100
AcDbVisualStyle
  2
Dim
 70
    11
177
     2
291
     1
 71
     2
176
     1
 72
     2
176
     1
 73
     0
176
     1
 90
        0
176
     1
 40
0.6
176
     1
 41
30.0
176
     1
 62
     5
 63
     7
421
 16777215
176
     1
 74
     1
176
     1
 91
        4
176
     1
 64
     7
176
     1
 65
   257
176
     1
 75
     1
176
     1
175
     1
176
     1
 42
1.0
176
     1
 92
        8
176
     1
 66
     7
176
     1
 43
1.0
176
     1
 76
     1
176
     1
 77
     6
176
     1
 78
     2
176
     1
 67
     7
176
     1
 79
     5
176
     1
170
     0
176
     1
171
     0
176
     1
290
     0
176
     1
 93
        1
176
     1
 44
-50.0
176
     1
173
     0
176
     1
  0
VISUALSTYLE
  5
3D
102
{ACAD_REACTORS
330
2A
102
}
102
{ACAD_XDICTIONARY
360
2B5
102
}
330
2A
100
AcDbVisualStyle
  2
EdgeColorOff
 70
    22
177
     2
291
     1
 71
     2
176
     0
 72
     2
176
     0
 73
     0
176
     0
 90
        0
176
     0
 40
0.6
176
     0
 41
30.0
176
     0
 62
     5
 63
     7
421
 16777215
176
     0
 74
     1
176
     0
 91
        4
176
     0
 64
     7
176
     0
 65
   257
176
     0
 75
     1
176
     0
175
     1
176
     0
 42
1.0
176
     0
 92
        8
176
     2
 66
     7
176
     0
 43
1.0
176
     0
 76
     1
176
     0
 77
     6
176
     0
 78
     2
176
     0
 67
     7
176
     0
 79
     5
176
     0
170
     0
176
     0
171
     0
176
     0
290
     0
176
     0
 93
        1
176
     0
 44
0.0
176
     0
173
     0
176
     0
  0
VISUALSTYLE
  5
39
102
{ACAD_REACTORS
330
2A
102
}
102
{ACAD_XDICTIONARY
360
2AD
102
}
330
2A
100
AcDbVisualStyle
  2
Facepattern
 70
    15
177
     2
291
     1
 71
     2
176
     1
 72
     2
176
     1
 73
     0
176
     1
 90
        0
176
     1
 40
0.6
176
     1
 41
30.0
176
     1
 62
     5
 63
     7
421
 16777215
176
     1
 74
     1
176
     1
 91
        4
176
     1
 64
     7
176
     1
 65
   257
176
     1
 75
     1
176
     1
175
     1
176
     1
 42
1.0
176
     1
 92
        8
176
     1
 66
     7
176
     1
 43
1.0
176
     1
 76
     1
176
     1
 77
     6
176
     1
 78
     2
176
     1
 67
     7
176
     1
 79
     5
176
     1
170
     0
176
     1
171
     0
176
     1
290
     0
176
     1
 93
        1
176
     1
 44
0.0
176
     1
173
     0
176
     1
  0
VISUALSTYLE
  5
2B
102
{ACAD_REACTORS
330
2A
102
}
102
{ACAD_XDICTIONARY
360
291
102
}
330
2A
100
AcDbVisualStyle
  2
Flat
 70
     0
177
     2
291
     1
 71
     2
176
     1
 72
     1
176
     1
 73
     1
176
     1
 90
        2
176
     1
 40
0.6
176
     1
 41
30.0
176
     1
 62
     5
 63
     7
421
 16777215
176
     1
 74
     0
176
     1
 91
        0
176
     1
 64
     7
176
     1
 65
   257
176
     1
 75
     1
176
     1
175
     1
176
     1
 42
1.0
176
     1
 92
        8
176
     1
 66
     7
176
     1
 43
1.0
176
     1
 76
     1
176
     1
 77
     6
176
     1
 78
     2
176
     1
 67
     7
176
     1
 79
     5
176
     1
170
     0
176
     1
171
     0
176
     1
290
     0
176
     1
 93
       13
176
     1
 44
0.0
176
     1
173
     0
176
     1
  0
VISUALSTYLE
  5
2C
102
{ACAD_REACTORS
330
2A
102
}
102
{ACAD_XDICTIONARY
360
293
102
}
330
2A
100
AcDbVisualStyle
  2
FlatWithEdges
 70
     1
177
     2
291
     1
 71
     2
176
     1
 72
     1
176
     1
 73
     1
176
     1
 90
        2
176
     1
 40
0.6
176
     1
 41
30.0
176
     1
 62
     5
 63
     7
421
 16777215
176
     1
 74
     1
176
     1
 91
        0
176
     1
 64
     7
176
     1
 65
   257
176
     1
 75
     1
176
     1
175
     1
176
     1
 42
1.0
176
     1
 92
        0
176
     1
 66
   257
176
     1
 43
1.0
176
     1
 76
     1
176
     1
 77
     6
176
     1
 78
     2
176
     1
 67
     7
176
     1
 79
     5
176
     1
170
     0
176
     1
171
     0
176
     1
290
     0
176
     1
 93
       13
176
     1
 44
0.0
176
     1
173
     0
176
     1
  0
VISUALSTYLE
  5
2D
102
{ACAD_REACTORS
330
2A
102
}
102
{ACAD_XDICTIONARY
360
295
102
}
330
2A
100
AcDbVisualStyle
  2
Gouraud
 70
     2
177
     2
291
     1
 71
     2
176
     1
 72
     2
176
     1
 73
     1
176
     1
 90
        2
176
     1
 40
0.6
176
     1
 41
30.0
176
     1
 62
     5
 63
     7
421
 16777215
176
     1
 74
     0
176
     1
 91
        0
176
     1
 64
     7
176
     1
 65
   257
176
     1
 75
     1
176
     1
175
     1
176
     1
 42
1.0
176
     1
 92
        0
176
     1
 66
     7
176
     1
 43
1.0
176
     1
 76
     1
176
     1
 77
     6
176
     1
 78
     2
176
     1
 67
     7
176
     1
 79
     5
176
     1
170
     0
176
     1
171
     0
176
     1
290
     0
176
     1
 93
       13
176
     1
 44
0.0
176
     1
173
     0
176
     1
  0
VISUALSTYLE
  5
2E
102
{ACAD_REACTORS
330
2A
102
}
102
{ACAD_XDICTIONARY
360
297
102
}
330
2A
100
AcDbVisualStyle
  2
GouraudWithEdges
 70
     3
177
     2
291
     1
 71
     2
176
     1
 72
     2
176
     1
 73
     1
176
     1
 90
        2
176
     1
 40
0.6
176
     1
 41
30.0
176
     1
 62
     5
 63
     7
421
 16777215
176
     1
 74
     1
176
     1
 91
        0
176
     1
 64
     7
176
     1
 65
   257
176
     1
 75
     1
176
     1
175
     1
176
     1
 42
1.0
176
     1
 92
        0
176
     1
 66
   257
176
     1
 43
1.0
176
     1
 76
     1
176
     1
 77
     6
176
     1
 78
     2
176
     1
 67
     7
176
     1
 79
     5
176
     1
170
     0
176
     1
171
     0
176
     1
290
     0
176
     1
 93
       13
176
     1
 44
0.0
176
     1
173
     0
176
     1
  0
VISUALSTYLE
  5
31
102
{ACAD_REACTORS
330
2A
102
}
102
{ACAD_XDICTIONARY
360
29D
102
}
330
2A
100
AcDbVisualStyle
  2
Hidden
 70
     6
177
     2
291
     0
 71
     1
176
     1
 72
     2
176
     1
 73
     2
176
     1
 90
        0
176
     1
 40
0.6
176
     1
 41
30.0
176
     1
 62
     5
 63
     7
421
 16777215
176
     1
 74
     2
176
     1
 91
        2
176
     1
 64
     7
176
     1
 65
   257
176
     1
 75
     2
176
     1
175
     1
176
     1
 42
40.0
176
     1
 92
        0
176
     1
 66
   257
176
     1
 43
1.0
176
     1
 76
     1
176
     1
 77
     6
176
     1
 78
     2
176
     1
 67
     7
176
     1
 79
     3
176
     1
170
     0
176
     1
171
     0
176
     1
290
     0
176
     1
 93
        1
176
     1
 44
0.0
176
     1
173
     0
176
     1
  0
VISUALSTYLE
  5
3B
102
{ACAD_REACTORS
330
2A
102
}
102
{ACAD_XDICTIONARY
360
2B1
102
}
330
2A
100
AcDbVisualStyle
  2
JitterOff
 70
    20
177
     2
291
     1
 71
     2
176
     0
 72
     2
176
     0
 73
     0
176
     0
 90
        0
176
     0
 40
0.6
176
     0
 41
30.0
176
     0
 62
     5
 63
     7
421
 16777215
176
     0
 74
     1
176
     0
 91
        4
176
     0
 64
     7
176
     0
 65
   257
176
     0
 75
     1
176
     0
175
     1
176
     0
 42
1.0
176
     0
 92
       10
176
     2
 66
     7
176
     0
 43
1.0
176
     0
 76
     1
176
     0
 77
     6
176
     0
 78
     2
176
     0
 67
     7
176
     0
 79
     5
176
     0
170
     0
176
     0
171
     0
176
     0
290
     0
176
     0
 93
        1
176
     0
 44
0.0
176
     0
173
     0
176
     0
  0
VISUALSTYLE
  5
38
102
{ACAD_REACTORS
330
2A
102
}
102
{ACAD_XDICTIONARY
360
2AB
102
}
330
2A
100
AcDbVisualStyle
  2
Linepattern
 70
    14
177
     2
291
     1
 71
     2
176
     1
 72
     2
176
     1
 73
     0
176
     1
 90
        0
176
     1
 40
0.6
176
     1
 41
30.0
176
     1
 62
     5
 63
     7
421
 16777215
176
     1
 74
     1
176
     1
 91
        4
176
     1
 64
     7
176
     1
 65
   257
176
     1
 75
     7
176
     1
175
     7
176
     1
 42
1.0
176
     1
 92
        8
176
     1
 66
     7
176
     1
 43
1.0
176
     1
 76
     1
176
     1
 77
     6
176
     1
 78
     2
176
     1
 67
     7
176
     1
 79
     5
176
     1
170
     0
176
     1
171
     0
176
     1
290
     0
176
     1
 93
        1
176
     1
 44
0.0
176
     1
173
     0
176
     1
  0
VISUALSTYLE
  5
3C
102
{ACAD_REACTORS
330
2A
102
}
102
{ACAD_XDICTIONARY
360
2B3
102
}
330
2A
100
AcDbVisualStyle
  2
OverhangOff
 70
    21
177
     2
291
     1
 71
     2
176
     0
 72
     2
176
     0
 73
     0
176
     0
 90
        0
176
     0
 40
0.6
176
     0
 41
30.0
176
     0
 62
     5
 63
     7
421
 16777215
176
     0
 74
     1
176
     0
 91
        4
176
     0
 64
     7
176
     0
 65
   257
176
     0
 75
     1
176
     0
175
     1
176
     0
 42
1.0
176
     0
 92
        9
176
     2
 66
     7
176
     0
 43
1.0
176
     0
 76
     1
176
     0
 77
     6
176
     0
 78
     2
176
     0
 67
     7
176
     0
 79
     5
176
     0
170
     0
176
     0
171
     0
176
     0
290
     0
176
     0
 93
        1
176
     0
 44
0.0
176
     0
173
     0
176
     0
  0
VISUALSTYLE
  5
33
102
{ACAD_REACTORS
330
2A
102
}
102
{ACAD_XDICTIONARY
360
2A1
102
}
330
2A
100
AcDbVisualStyle
  2
Realistic
 70
     8
177
     2
291
     0
 71
     2
176
     1
 72
     3
176
     1
 73
     0
176
     1
 90
        2
176
     1
 40
0.6
176
     1
 41
30.0
176
     1
 62
     5
 63
     7
421
 16777215
176
     1
 74
     0
176
     1
 91
        0
176
     1
 64
     7
176
     1
 65
   257
176
     1
 75
     1
176
     1
175
     1
176
     1
 42
1.0
176
     1
 92
        8
176
     1
 66
   257
176
     1
 43
1.0
176
     1
 76
     1
176
     1
 77
     6
176
     1
 78
     2
176
     1
 67
     7
176
     1
 79
     3
176
     1
170
     0
176
     1
171
     0
176
     1
290
     0
176
     1
 93
       13
176
     1
 44
0.0
176
     1
173
     0
176
     1
  0
VISUALSTYLE
  5
42
102
{ACAD_REACTORS
330
2A
102
}
102
{ACAD_XDICTIONARY
360
2BF
102
}
330
2A
100
AcDbVisualStyle
  2
Shaded
 70
    27
177
     2
291
     0
 71
     2
176
     1
 72
     2
176
     1
 73
     1
176
     1
 90
        2
176
     1
 40
0.6
176
     1
 41
30.0
176
     1
 62
     5
 63
     7
421
 16777215
176
     1
 74
     0
176
     1
 91
        4
176
     1
 64
     7
176
     1
 65
   257
176
     1
 75
     1
176
     1
175
     1
176
     1
 42
1.0
176
     1
 92
        8
176
     1
 66
   257
176
     1
 43
1.0
176
     1
 76
     1
176
     1
 77
     6
176
     1
 78
     2
176
     1
 67
     8
425
  7895160
176
     1
 79
     3
176
     1
170
     0
176
     1
171
     0
176
     1
290
     0
176
     1
 93
        5
176
     1
 44
0.0
176
     1
173
     0
176
     1
  0
VISUALSTYLE
  5
41
102
{ACAD_REACTORS
330
2A
102
}
102
{ACAD_XDICTIONARY
360
2BD
102
}
330
2A
100
AcDbVisualStyle
  2
Shaded with edges
 70
    26
177
     2
291
     0
 71
     2
176
     1
 72
     2
176
     1
 73
     1
176
     1
 90
        2
176
     1
 40
0.6
176
     1
 41
30.0
176
     1
 62
     5
 63
     7
421
 16777215
176
     1
 74
     1
176
     1
 91
       10
176
     1
 64
     7
176
     1
 65
   257
176
     1
 75
     2
176
     1
175
     1
176
     1
 42
1.0
176
     1
 92
        8
176
     1
 66
   257
176
     1
 43
1.0
176
     1
 76
     1
176
     1
 77
     6
176
     1
 78
     2
176
     1
 67
     7
176
     1
 79
     3
176
     1
170
     0
176
     1
171
     0
176
     1
290
     0
176
     1
 93
        5
176
     1
 44
0.0
176
     1
173
     0
176
     1
  0
VISUALSTYLE
  5
3E
102
{ACAD_REACTORS
330
2A
102
}
102
{ACAD_XDICTIONARY
360
2B7
102
}
330
2A
100
AcDbVisualStyle
  2
Shades of Gray
 70
    23
177
     2
291
     0
 71
     2
176
     1
 72
     2
176
     1
 73
     3
176
     1
 90
        0
176
     1
 40
0.6
176
     1
 41
30.0
176
     1
 62
     5
 63
     7
421
 16777215
176
     1
 74
     2
176
     1
 91
        2
176
     1
 64
     7
176
     1
 65
     7
176
     1
 75
     1
176
     1
175
     1
176
     1
 42
40.0
176
     1
 92
        8
176
     1
 66
     7
176
     1
 43
1.0
176
     1
 76
     1
176
     1
 77
     6
176
     1
 78
     2
176
     1
 67
     7
176
     1
 79
     3
176
     1
170
     0
176
     1
171
     0
176
     1
290
     0
176
     1
 93
        1
176
     1
 44
0.0
176
     1
173
     0
176
     1
  0
VISUALSTYLE
  5
3F
102
{ACAD_REACTORS
330
2A
102
}
102
{ACAD_XDICTIONARY
360
2B9
102
}
330
2A
100
AcDbVisualStyle
  2
Sketchy
 70
    24
177
     2
291
     0
 71
     1
176
     1
 72
     2
176
     1
 73
     2
176
     1
 90
        0
176
     1
 40
0.6
176
     1
 41
30.0
176
     1
 62
     5
 63
     7
421
 16777215
176
     1
 74
     2
176
     1
 91
        2
176
     1
 64
     7
176
     1
 65
     7
176
     1
 75
     1
176
     1
175
     1
176
     1
 42
40.0
176
     1
 92
       11
176
     1
 66
     7
176
     1
 43
1.0
176
     1
 76
     1
176
     1
 77
     6
176
     1
 78
     2
176
     1
 67
     7
176
     1
 79
     6
176
     1
170
     0
176
     1
171
     0
176
     1
290
     0
176
     1
 93
        1
176
     1
 44
0.0
176
     1
173
     0
176
     1
  0
VISUALSTYLE
  5
37
102
{ACAD_REACTORS
330
2A
102
}
102
{ACAD_XDICTIONARY
360
2A9
102
}
330
2A
100
AcDbVisualStyle
  2
Thicken
 70
    13
177
     2
291
     1
 71
     2
176
     1
 72
     2
176
     1
 73
     0
176
     1
 90
        0
176
     1
 40
0.6
176
     1
 41
30.0
176
     1
 62
     5
 63
     7
421
 16777215
176
     1
 74
     1
176
     1
 91
        4
176
     1
 64
     7
176
     1
 65
   257
176
     1
 75
     1
176
     1
175
     1
176
     1
 42
1.0
176
     1
 92
       12
176
     1
 66
     7
176
     1
 43
1.0
176
     1
 76
     1
176
     1
 77
     6
176
     1
 78
     2
176
     1
 67
     7
176
     1
 79
     5
176
     1
170
     0
176
     1
171
     0
176
     1
290
     0
176
     1
 93
        1
176
     1
 44
0.0
176
     1
173
     0
176
     1
  0
VISUALSTYLE
  5
30
102
{ACAD_REACTORS
330
2A
102
}
102
{ACAD_XDICTIONARY
360
29B
102
}
330
2A
100
AcDbVisualStyle
  2
Wireframe
 70
     5
177
     2
291
     0
 71
     0
176
     1
 72
     2
176
     1
 73
     0
176
     1
 90
        0
176
     1
 40
0.6
176
     1
 41
30.0
176
     1
 62
     5
 63
     7
421
 16777215
176
     1
 74
     1
176
     1
 91
        4
176
     1
 64
     7
176
     1
 65
   257
176
     1
 75
     1
176
     1
175
     1
176
     1
 42
1.0
176
     1
 92
        0
176
     1
 66
   257
176
     1
 43
1.0
176
     1
 76
     1
176
     1
 77
     6
176
     1
 78
     2
176
     1
 67
     7
176
     1
 79
     3
176
     1
170
     0
176
     1
171
     0
176
     1
290
     0
176
     1
 93
        1
176
     1
 44
0.0
176
     1
173
     0
176
     1
  0
VISUALSTYLE
  5
40
102
{ACAD_REACTORS
330
2A
102
}
102
{ACAD_XDICTIONARY
360
2BB
102
}
330
2A
100
AcDbVisualStyle
  2
X-Ray
 70
    25
177
     2
291
     0
 71
     2
176
     1
 72
     2
176
     1
 73
     1
176
     1
 90
        1
176
     1
 40
0.5
176
     1
 41
30.0
176
     1
 62
     5
 63
     7
421
 16777215
176
     1
 74
     1
176
     1
 91
        0
176
     1
 64
     7
176
     1
 65
   257
176
     1
 75
     1
176
     1
175
     1
176
     1
 42
1.0
176
     1
 92
        8
176
     1
 66
     7
176
     1
 43
1.0
176
     1
 76
     1
176
     1
 77
     6
176
     1
 78
     2
176
     1
 67
     7
176
     1
 79
     3
176
     1
170
     0
176
     1
171
     0
176
     1
290
     0
176
     1
 93
       13
176
     1
 44
0.0
176
     1
173
     0
176
     1
  0
DICTIONARYVAR
  5
290
102
{ACAD_REACTORS
330
28F
102
}
330
28F
100
DictionaryVariables
280
     0
  1
1:1
  0
DICTIONARYVAR
  5
2C5
102
{ACAD_REACTORS
330
28F
102
}
330
28F
100
DictionaryVariables
280
     0
  1
Standard
  0
DICTIONARYVAR
  5
2C4
102
{ACAD_REACTORS
330
28F
102
}
330
28F
100
DictionaryVariables
280
     0
  1
Standard
  0
DICTIONARY
  5
2C1
330
5A
100
AcDbDictionary
280
     1
281
     1
  3
ACAD_ROUNDTRIP_2008_TABLESTYLE_CELLSTYLEMAP
360
2C2
  0
DICTIONARY
  5
299
330
2F
100
AcDbDictionary
280
     1
281
     1
  3
ACAD_XREC_ROUNDTRIP
360
29A
  0
DICTIONARY
  5
29F
330
32
100
AcDbDictionary
280
     1
281
     1
  3
ACAD_XREC_ROUNDTRIP
360
2A0
  0
DICTIONARY
  5
2A7
330
36
100
AcDbDictionary
280
     1
281
     1
  3
ACAD_XREC_ROUNDTRIP
360
2A8
  0
DICTIONARY
  5
2AF
330
3A
100
AcDbDictionary
280
     1
281
     1
  3
ACAD_XREC_ROUNDTRIP
360
2B0
  0
DICTIONARY
  5
2A3
330
34
100
AcDbDictionary
280
     1
281
     1
  3
ACAD_XREC_ROUNDTRIP
360
2A4
  0
DICTIONARY
  5
2A5
330
35
100
AcDbDictionary
280
     1
281
     1
  3
ACAD_XREC_ROUNDTRIP
360
2A6
  0
DICTIONARY
  5
2B5
330
3D
100
AcDbDictionary
280
     1
281
     1
  3
ACAD_XREC_ROUNDTRIP
360
2B6
  0
DICTIONARY
  5
2AD
330
39
100
AcDbDictionary
280
     1
281
     1
  3
ACAD_XREC_ROUNDTRIP
360
2AE
  0
DICTIONARY
  5
291
330
2B
100
AcDbDictionary
280
     1
281
     1
  3
ACAD_XREC_ROUNDTRIP
360
292
  0
DICTIONARY
  5
293
330
2C
100
AcDbDictionary
280
     1
281
     1
  3
ACAD_XREC_ROUNDTRIP
360
294
  0
DICTIONARY
  5
295
330
2D
100
AcDbDictionary
280
     1
281
     1
  3
ACAD_XREC_ROUNDTRIP
360
296
  0
DICTIONARY
  5
297
330
2E
100
AcDbDictionary
280
     1
281
     1
  3
ACAD_XREC_ROUNDTRIP
360
298
  0
DICTIONARY
  5
29D
330
31
100
AcDbDictionary
280
     1
281
     1
  3
ACAD_XREC_ROUNDTRIP
360
29E
  0
DICTIONARY
  5
2B1
330
3B
100
AcDbDictionary
280
     1
281
     1
  3
ACAD_XREC_ROUNDTRIP
360
2B2
  0
DICTIONARY
  5
2AB
330
38
100
AcDbDictionary
280
     1
281
     1
  3
ACAD_XREC_ROUNDTRIP
360
2AC
  0
DICTIONARY
  5
2B3
330
3C
100
AcDbDictionary
280
     1
281
     1
  3
ACAD_XREC_ROUNDTRIP
360
2B4
  0
DICTIONARY
  5
2A1
330
33
100
AcDbDictionary
280
     1
281
     1
  3
ACAD_XREC_ROUNDTRIP
360
2A2
  0
DICTIONARY
  5
2BF
330
42
100
AcDbDictionary
280
     1
281
     1
  3
ACAD_XREC_ROUNDTRIP
360
2C0
  0
DICTIONARY
  5
2BD
330
41
100
AcDbDictionary
280
     1
281
     1
  3
ACAD_XREC_ROUNDTRIP
360
2BE
  0
DICTIONARY
  5
2B7
330
3E
100
AcDbDictionary
280
     1
281
     1
  3
ACAD_XREC_ROUNDTRIP
360
2B8
  0
DICTIONARY
  5
2B9
330
3F
100
AcDbDictionary
280
     1
281
     1
  3
ACAD_XREC_ROUNDTRIP
360
2BA
  0
DICTIONARY
  5
2A9
330
37
100
AcDbDictionary
280
     1
281
     1
  3
ACAD_XREC_ROUNDTRIP
360
2AA
  0
DICTIONARY
  5
29B
330
30
100
AcDbDictionary
280
     1
281
     1
  3
ACAD_XREC_ROUNDTRIP
360
29C
  0
DICTIONARY
  5
2BB
330
40
100
AcDbDictionary
280
     1
281
     1
  3
ACAD_XREC_ROUNDTRIP
360
2BC
  0
CELLSTYLEMAP
  5
2C2
102
{ACAD_REACTORS
330
2C1
102
}
330
2C1
100
AcDbCellStyleMap
 90
        3
300
CELLSTYLE
  1
TABLEFORMAT_BEGIN
 90
        5
170
     1
 91
        0
 92
    32768
 62
   257
 93
        1
300
CONTENTFORMAT
  1
CONTENTFORMAT_BEGIN
 90
        0
 91
        0
 92
        4
 93
        0
300

 40
0.0
140
1.0
 94
        5
 62
     0
340
11
144
0.25
309
CONTENTFORMAT_END
171
     1
301
MARGIN
  1
CELLMARGIN_BEGIN
 40
0.06
 40
0.06
 40
0.06
 40
0.06
 40
0.06
 40
0.06
309
CELLMARGIN_END
 94
        6
 95
        1
302
GRIDFORMAT
  1
GRIDFORMAT_BEGIN
 90
        0
 91
        1
 62
     0
 92
       -2
340
14
 93
        0
 40
0.045
309
GRIDFORMAT_END
 95
        2
302
GRIDFORMAT
  1
GRIDFORMAT_BEGIN
 90
        0
 91
        1
 62
     0
 92
       -2
340
14
 93
        0
 40
0.045
309
GRIDFORMAT_END
 95
        4
302
GRIDFORMAT
  1
GRIDFORMAT_BEGIN
 90
        0
 91
        1
 62
     0
 92
       -2
340
14
 93
        0
 40
0.045
309
GRIDFORMAT_END
 95
        8
302
GRIDFORMAT
  1
GRIDFORMAT_BEGIN
 90
        0
 91
        1
 62
     0
 92
       -2
340
14
 93
        0
 40
0.045
309
GRIDFORMAT_END
 95
       16
302
GRIDFORMAT
  1
GRIDFORMAT_BEGIN
 90
        0
 91
        1
 62
     0
 92
       -2
340
14
 93
        0
 40
0.045
309
GRIDFORMAT_END
 95
       32
302
GRIDFORMAT
  1
GRIDFORMAT_BEGIN
 90
        0
 91
        1
 62
     0
 92
       -2
340
14
 93
        0
 40
0.045
309
GRIDFORMAT_END
309
TABLEFORMAT_END
  1
CELLSTYLE_BEGIN
 90
        1
 91
        1
300
_TITLE
309
CELLSTYLE_END
300
CELLSTYLE
  1
TABLEFORMAT_BEGIN
 90
        5
170
     1
 91
        0
 92
        0
 62
   257
 93
        1
300
CONTENTFORMAT
  1
CONTENTFORMAT_BEGIN
 90
        0
 91
        0
 92
        4
 93
        0
300

 40
0.0
140
1.0
 94
        5
 62
     0
340
11
144
0.18
309
CONTENTFORMAT_END
171
     1
301
MARGIN
  1
CELLMARGIN_BEGIN
 40
0.06
 40
0.06
 40
0.06
 40
0.06
 40
0.06
 40
0.06
309
CELLMARGIN_END
 94
        6
 95
        1
302
GRIDFORMAT
  1
GRIDFORMAT_BEGIN
 90
        0
 91
        1
 62
     0
 92
       -2
340
14
 93
        0
 40
0.045
309
GRIDFORMAT_END
 95
        2
302
GRIDFORMAT
  1
GRIDFORMAT_BEGIN
 90
        0
 91
        1
 62
     0
 92
       -2
340
14
 93
        0
 40
0.045
309
GRIDFORMAT_END
 95
        4
302
GRIDFORMAT
  1
GRIDFORMAT_BEGIN
 90
        0
 91
        1
 62
     0
 92
       -2
340
14
 93
        0
 40
0.045
309
GRIDFORMAT_END
 95
        8
302
GRIDFORMAT
  1
GRIDFORMAT_BEGIN
 90
        0
 91
        1
 62
     0
 92
       -2
340
14
 93
        0
 40
0.045
309
GRIDFORMAT_END
 95
       16
302
GRIDFORMAT
  1
GRIDFORMAT_BEGIN
 90
        0
 91
        1
 62
     0
 92
       -2
340
14
 93
        0
 40
0.045
309
GRIDFORMAT_END
 95
       32
302
GRIDFORMAT
  1
GRIDFORMAT_BEGIN
 90
        0
 91
        1
 62
     0
 92
       -2
340
14
 93
        0
 40
0.045
309
GRIDFORMAT_END
309
TABLEFORMAT_END
  1
CELLSTYLE_BEGIN
 90
        2
 91
        1
300
_HEADER
309
CELLSTYLE_END
300
CELLSTYLE
  1
TABLEFORMAT_BEGIN
 90
        5
170
     1
 91
        0
 92
        0
 62
   257
 93
        1
300
CONTENTFORMAT
  1
CONTENTFORMAT_BEGIN
 90
        0
 91
        0
 92
        4
 93
        0
300

 40
0.0
140
1.0
 94
        2
 62
     0
340
11
144
0.18
309
CONTENTFORMAT_END
171
     1
301
MARGIN
  1
CELLMARGIN_BEGIN
 40
0.06
 40
0.06
 40
0.06
 40
0.06
 40
0.06
 40
0.06
309
CELLMARGIN_END
 94
        6
 95
        1
302
GRIDFORMAT
  1
GRIDFORMAT_BEGIN
 90
        0
 91
        1
 62
     0
 92
       -2
340
14
 93
        0
 40
0.045
309
GRIDFORMAT_END
 95
        2
302
GRIDFORMAT
  1
GRIDFORMAT_BEGIN
 90
        0
 91
        1
 62
     0
 92
       -2
340
14
 93
        0
 40
0.045
309
GRIDFORMAT_END
 95
        4
302
GRIDFORMAT
  1
GRIDFORMAT_BEGIN
 90
        0
 91
        1
 62
     0
 92
       -2
340
14
 93
        0
 40
0.045
309
GRIDFORMAT_END
 95
        8
302
GRIDFORMAT
  1
GRIDFORMAT_BEGIN
 90
        0
 91
        1
 62
     0
 92
       -2
340
14
 93
        0
 40
0.045
309
GRIDFORMAT_END
 95
       16
302
GRIDFORMAT
  1
GRIDFORMAT_BEGIN
 90
        0
 91
        1
 62
     0
 92
       -2
340
14
 93
        0
 40
0.045
309
GRIDFORMAT_END
 95
       32
302
GRIDFORMAT
  1
GRIDFORMAT_BEGIN
 90
        0
 91
        1
 62
     0
 92
       -2
340
14
 93
        0
 40
0.045
309
GRIDFORMAT_END
309
TABLEFORMAT_END
  1
CELLSTYLE_BEGIN
 90
        3
 91
        2
300
_DATA
309
CELLSTYLE_END
  0
XRECORD
  5
29A
102
{ACAD_REACTORS
330
299
102
}
330
299
100
AcDbXrecord
280
     1
102
RTVSPost2010Prop28
280
     1
102
RTVSPost2010PropOp28
 70
     1
102
RTVSPost2010Prop29
280
     1
102
RTVSPost2010PropOp29
 70
     1
102
RTVSPost2010Prop30
280
     0
102
RTVSPost2010PropOp30
 70
     1
102
RTVSPost2010Prop31
280
     0
102
RTVSPost2010PropOp31
 70
     1
102
RTVSPost2010Prop32
280
     0
102
RTVSPost2010PropOp32
 70
     1
102
RTVSPost2010Prop33
280
     0
102
RTVSPost2010PropOp33
 70
     1
102
RTVSPost2010Prop34
280
     0
102
RTVSPost2010PropOp34
 70
     1
102
RTVSPost2010Prop35
280
     0
102
RTVSPost2010PropOp35
 70
     1
102
RTVSPost2010Prop36
280
     0
102
RTVSPost2010PropOp36
 70
     1
102
RTVSPost2010Prop37
 90
       50
102
RTVSPost2010PropOp37
 70
     1
102
RTVSPost2010Prop38
140
0.0
102
RTVSPost2010PropOp38
 70
     1
102
RTVSPost2010Prop39
140
1.0
102
RTVSPost2010PropOp39
 70
     1
102
RTVSPost2010Prop40
 90
        0
102
RTVSPost2010PropOp40
 70
     1
102
RTVSPost2010Prop41ColorIndex
 90
       18
102
RTVSPost2010Prop41ColorRGB
 90
        0
102
RTVSPost2010PropOp41
 70
     1
102
RTVSPost2010Prop42
 90
       50
102
RTVSPost2010PropOp42
 70
     1
102
RTVSPost2010Prop43
 90
        3
102
RTVSPost2010PropOp43
 70
     1
102
RTVSPost2010Prop44ColorIndex
 90
        5
102
RTVSPost2010Prop44ColorRGB
 90
      255
102
RTVSPost2010PropOp44
 70
     1
102
RTVSPost2010Prop45
280
     0
102
RTVSPost2010PropOp45
 70
     1
102
RTVSPost2010Prop46
 90
       50
102
RTVSPost2010PropOp46
 70
     1
102
RTVSPost2010Prop47
 90
       50
102
RTVSPost2010PropOp47
 70
     1
102
RTVSPost2010Prop48
 90
       50
102
RTVSPost2010PropOp48
 70
     1
102
RTVSPost2010Prop49
280
     0
102
RTVSPost2010PropOp49
 70
     1
102
RTVSPost2010Prop50
 90
       50
102
RTVSPost2010PropOp50
 70
     1
102
RTVSPost2010Prop51ColorIndex
 90
      256
102
RTVSPost2010Prop51ColorRGB
 90
-16777216
102
RTVSPost2010PropOp51
 70
     0
102
RTVSPost2010Prop52
140
1.0
102
RTVSPost2010PropOp52
 70
     0
102
RTVSPost2010Prop53
 90
        2
102
RTVSPost2010PropOp53
 70
     1
102
RTVSPost2010Prop54
  1
strokes_ogs.tif
102
RTVSPost2010PropOp54
 70
     1
102
RTVSPost2010Prop55
280
     0
102
RTVSPost2010PropOp55
 70
     1
102
RTVSPost2010Prop56
140
1.0
102
RTVSPost2010PropOp56
 70
     1
102
RTVSPost2010Prop57
140
1.0
102
RTVSPost2010PropOp57
 70
     1
  0
XRECORD
  5
2A0
102
{ACAD_REACTORS
330
29F
102
}
330
29F
100
AcDbXrecord
280
     1
102
RTVSPost2010Prop28
280
     0
102
RTVSPost2010PropOp28
 70
     1
102
RTVSPost2010Prop29
280
     1
102
RTVSPost2010PropOp29
 70
     1
102
RTVSPost2010Prop30
280
     1
102
RTVSPost2010PropOp30
 70
     1
102
RTVSPost2010Prop31
280
     0
102
RTVSPost2010PropOp31
 70
     1
102
RTVSPost2010Prop32
280
     0
102
RTVSPost2010PropOp32
 70
     1
102
RTVSPost2010Prop33
280
     0
102
RTVSPost2010PropOp33
 70
     1
102
RTVSPost2010Prop34
280
     0
102
RTVSPost2010PropOp34
 70
     1
102
RTVSPost2010Prop35
280
     0
102
RTVSPost2010PropOp35
 70
     1
102
RTVSPost2010Prop36
280
     0
102
RTVSPost2010PropOp36
 70
     1
102
RTVSPost2010Prop37
 90
       50
102
RTVSPost2010PropOp37
 70
     1
102
RTVSPost2010Prop38
140
0.0
102
RTVSPost2010PropOp38
 70
     1
102
RTVSPost2010Prop39
140
1.0
102
RTVSPost2010PropOp39
 70
     1
102
RTVSPost2010Prop40
 90
        0
102
RTVSPost2010PropOp40
 70
     1
102
RTVSPost2010Prop41ColorIndex
 90
       18
102
RTVSPost2010Prop41ColorRGB
 90
        0
102
RTVSPost2010PropOp41
 70
     1
102
RTVSPost2010Prop42
 90
       50
102
RTVSPost2010PropOp42
 70
     1
102
RTVSPost2010Prop43
 90
        3
102
RTVSPost2010PropOp43
 70
     1
102
RTVSPost2010Prop44ColorIndex
 90
        5
102
RTVSPost2010Prop44ColorRGB
 90
      255
102
RTVSPost2010PropOp44
 70
     1
102
RTVSPost2010Prop45
280
     0
102
RTVSPost2010PropOp45
 70
     1
102
RTVSPost2010Prop46
 90
       50
102
RTVSPost2010PropOp46
 70
     1
102
RTVSPost2010Prop47
 90
       50
102
RTVSPost2010PropOp47
 70
     1
102
RTVSPost2010Prop48
 90
       50
102
RTVSPost2010PropOp48
 70
     1
102
RTVSPost2010Prop49
280
     0
102
RTVSPost2010PropOp49
 70
     1
102
RTVSPost2010Prop50
 90
       50
102
RTVSPost2010PropOp50
 70
     1
102
RTVSPost2010Prop51ColorIndex
 90
      256
102
RTVSPost2010Prop51ColorRGB
 90
-16777216
102
RTVSPost2010PropOp51
 70
     0
102
RTVSPost2010Prop52
140
1.0
102
RTVSPost2010PropOp52
 70
     0
102
RTVSPost2010Prop53
 90
        2
102
RTVSPost2010PropOp53
 70
     1
102
RTVSPost2010Prop54
  1
strokes_ogs.tif
102
RTVSPost2010PropOp54
 70
     1
102
RTVSPost2010Prop55
280
     0
102
RTVSPost2010PropOp55
 70
     1
102
RTVSPost2010Prop56
140
1.0
102
RTVSPost2010PropOp56
 70
     1
102
RTVSPost2010Prop57
140
1.0
102
RTVSPost2010PropOp57
 70
     1
  0
XRECORD
  5
2A8
102
{ACAD_REACTORS
330
2A7
102
}
330
2A7
100
AcDbXrecord
280
     1
102
RTVSPost2010Prop28
280
     0
102
RTVSPost2010PropOp28
 70
     1
102
RTVSPost2010Prop29
280
     1
102
RTVSPost2010PropOp29
 70
     1
102
RTVSPost2010Prop30
280
     1
102
RTVSPost2010PropOp30
 70
     1
102
RTVSPost2010Prop31
280
     0
102
RTVSPost2010PropOp31
 70
     1
102
RTVSPost2010Prop32
280
     0
102
RTVSPost2010PropOp32
 70
     1
102
RTVSPost2010Prop33
280
     0
102
RTVSPost2010PropOp33
 70
     1
102
RTVSPost2010Prop34
280
     0
102
RTVSPost2010PropOp34
 70
     1
102
RTVSPost2010Prop35
280
     0
102
RTVSPost2010PropOp35
 70
     1
102
RTVSPost2010Prop36
280
     0
102
RTVSPost2010PropOp36
 70
     1
102
RTVSPost2010Prop37
 90
       50
102
RTVSPost2010PropOp37
 70
     1
102
RTVSPost2010Prop38
140
0.0
102
RTVSPost2010PropOp38
 70
     1
102
RTVSPost2010Prop39
140
1.0
102
RTVSPost2010PropOp39
 70
     1
102
RTVSPost2010Prop40
 90
        0
102
RTVSPost2010PropOp40
 70
     1
102
RTVSPost2010Prop41ColorIndex
 90
       18
102
RTVSPost2010Prop41ColorRGB
 90
        0
102
RTVSPost2010PropOp41
 70
     1
102
RTVSPost2010Prop42
 90
       50
102
RTVSPost2010PropOp42
 70
     1
102
RTVSPost2010Prop43
 90
        3
102
RTVSPost2010PropOp43
 70
     1
102
RTVSPost2010Prop44ColorIndex
 90
        5
102
RTVSPost2010Prop44ColorRGB
 90
      255
102
RTVSPost2010PropOp44
 70
     1
102
RTVSPost2010Prop45
280
     0
102
RTVSPost2010PropOp45
 70
     1
102
RTVSPost2010Prop46
 90
       50
102
RTVSPost2010PropOp46
 70
     1
102
RTVSPost2010Prop47
 90
       50
102
RTVSPost2010PropOp47
 70
     1
102
RTVSPost2010Prop48
 90
       50
102
RTVSPost2010PropOp48
 70
     1
102
RTVSPost2010Prop49
280
     0
102
RTVSPost2010PropOp49
 70
     1
102
RTVSPost2010Prop50
 90
       50
102
RTVSPost2010PropOp50
 70
     1
102
RTVSPost2010Prop51ColorIndex
 90
      256
102
RTVSPost2010Prop51ColorRGB
 90
-16777216
102
RTVSPost2010PropOp51
 70
     0
102
RTVSPost2010Prop52
140
1.0
102
RTVSPost2010PropOp52
 70
     0
102
RTVSPost2010Prop53
 90
        2
102
RTVSPost2010PropOp53
 70
     1
102
RTVSPost2010Prop54
  1
strokes_ogs.tif
102
RTVSPost2010PropOp54
 70
     1
102
RTVSPost2010Prop55
280
     0
102
RTVSPost2010PropOp55
 70
     1
102
RTVSPost2010Prop56
140
1.0
102
RTVSPost2010PropOp56
 70
     1
102
RTVSPost2010Prop57
140
1.0
102
RTVSPost2010PropOp57
 70
     1
  0
XRECORD
  5
2B0
102
{ACAD_REACTORS
330
2AF
102
}
330
2AF
100
AcDbXrecord
280
     1
102
RTVSPost2010Prop28
280
     0
102
RTVSPost2010PropOp28
 70
     1
102
RTVSPost2010Prop29
280
     1
102
RTVSPost2010PropOp29
 70
     1
102
RTVSPost2010Prop30
280
     1
102
RTVSPost2010PropOp30
 70
     1
102
RTVSPost2010Prop31
280
     0
102
RTVSPost2010PropOp31
 70
     1
102
RTVSPost2010Prop32
280
     0
102
RTVSPost2010PropOp32
 70
     1
102
RTVSPost2010Prop33
280
     0
102
RTVSPost2010PropOp33
 70
     1
102
RTVSPost2010Prop34
280
     0
102
RTVSPost2010PropOp34
 70
     1
102
RTVSPost2010Prop35
280
     0
102
RTVSPost2010PropOp35
 70
     1
102
RTVSPost2010Prop36
280
     0
102
RTVSPost2010PropOp36
 70
     1
102
RTVSPost2010Prop37
 90
       50
102
RTVSPost2010PropOp37
 70
     1
102
RTVSPost2010Prop38
140
0.0
102
RTVSPost2010PropOp38
 70
     1
102
RTVSPost2010Prop39
140
1.0
102
RTVSPost2010PropOp39
 70
     1
102
RTVSPost2010Prop40
 90
        0
102
RTVSPost2010PropOp40
 70
     1
102
RTVSPost2010Prop41ColorIndex
 90
       18
102
RTVSPost2010Prop41ColorRGB
 90
        0
102
RTVSPost2010PropOp41
 70
     1
102
RTVSPost2010Prop42
 90
       50
102
RTVSPost2010PropOp42
 70
     1
102
RTVSPost2010Prop43
 90
        3
102
RTVSPost2010PropOp43
 70
     1
102
RTVSPost2010Prop44ColorIndex
 90
        5
102
RTVSPost2010Prop44ColorRGB
 90
      255
102
RTVSPost2010PropOp44
 70
     1
102
RTVSPost2010Prop45
280
     0
102
RTVSPost2010PropOp45
 70
     1
102
RTVSPost2010Prop46
 90
       50
102
RTVSPost2010PropOp46
 70
     1
102
RTVSPost2010Prop47
 90
       50
102
RTVSPost2010PropOp47
 70
     1
102
RTVSPost2010Prop48
 90
       50
102
RTVSPost2010PropOp48
 70
     1
102
RTVSPost2010Prop49
280
     0
102
RTVSPost2010PropOp49
 70
     1
102
RTVSPost2010Prop50
 90
       50
102
RTVSPost2010PropOp50
 70
     1
102
RTVSPost2010Prop51ColorIndex
 90
      256
102
RTVSPost2010Prop51ColorRGB
 90
-16777216
102
RTVSPost2010PropOp51
 70
     0
102
RTVSPost2010Prop52
140
1.0
102
RTVSPost2010PropOp52
 70
     0
102
RTVSPost2010Prop53
 90
        2
102
RTVSPost2010PropOp53
 70
     1
102
RTVSPost2010Prop54
  1
strokes_ogs.tif
102
RTVSPost2010PropOp54
 70
     1
102
RTVSPost2010Prop55
280
     0
102
RTVSPost2010PropOp55
 70
     1
102
RTVSPost2010Prop56
140
1.0
102
RTVSPost2010PropOp56
 70
     1
102
RTVSPost2010Prop57
140
1.0
102
RTVSPost2010PropOp57
 70
     1
  0
XRECORD
  5
2A4
102
{ACAD_REACTORS
330
2A3
102
}
330
2A3
100
AcDbXrecord
280
     1
102
RTVSPost2010Prop28
280
     0
102
RTVSPost2010PropOp28
 70
     1
102
RTVSPost2010Prop29
280
     1
102
RTVSPost2010PropOp29
 70
     1
102
RTVSPost2010Prop30
280
     1
102
RTVSPost2010PropOp30
 70
     1
102
RTVSPost2010Prop31
280
     0
102
RTVSPost2010PropOp31
 70
     1
102
RTVSPost2010Prop32
280
     0
102
RTVSPost2010PropOp32
 70
     1
102
RTVSPost2010Prop33
280
     0
102
RTVSPost2010PropOp33
 70
     1
102
RTVSPost2010Prop34
280
     0
102
RTVSPost2010PropOp34
 70
     1
102
RTVSPost2010Prop35
280
     0
102
RTVSPost2010PropOp35
 70
     1
102
RTVSPost2010Prop36
280
     0
102
RTVSPost2010PropOp36
 70
     1
102
RTVSPost2010Prop37
 90
       50
102
RTVSPost2010PropOp37
 70
     1
102
RTVSPost2010Prop38
140
0.0
102
RTVSPost2010PropOp38
 70
     1
102
RTVSPost2010Prop39
140
1.0
102
RTVSPost2010PropOp39
 70
     1
102
RTVSPost2010Prop40
 90
        0
102
RTVSPost2010PropOp40
 70
     1
102
RTVSPost2010Prop41ColorIndex
 90
       18
102
RTVSPost2010Prop41ColorRGB
 90
        0
102
RTVSPost2010PropOp41
 70
     1
102
RTVSPost2010Prop42
 90
       50
102
RTVSPost2010PropOp42
 70
     1
102
RTVSPost2010Prop43
 90
        3
102
RTVSPost2010PropOp43
 70
     1
102
RTVSPost2010Prop44ColorIndex
 90
        5
102
RTVSPost2010Prop44ColorRGB
 90
      255
102
RTVSPost2010PropOp44
 70
     1
102
RTVSPost2010Prop45
280
     0
102
RTVSPost2010PropOp45
 70
     1
102
RTVSPost2010Prop46
 90
       50
102
RTVSPost2010PropOp46
 70
     1
102
RTVSPost2010Prop47
 90
       50
102
RTVSPost2010PropOp47
 70
     1
102
RTVSPost2010Prop48
 90
       50
102
RTVSPost2010PropOp48
 70
     1
102
RTVSPost2010Prop49
280
     0
102
RTVSPost2010PropOp49
 70
     1
102
RTVSPost2010Prop50
 90
       50
102
RTVSPost2010PropOp50
 70
     1
102
RTVSPost2010Prop51ColorIndex
 90
      256
102
RTVSPost2010Prop51ColorRGB
 90
-16777216
102
RTVSPost2010PropOp51
 70
     0
102
RTVSPost2010Prop52
140
1.0
102
RTVSPost2010PropOp52
 70
     0
102
RTVSPost2010Prop53
 90
        2
102
RTVSPost2010PropOp53
 70
     1
102
RTVSPost2010Prop54
  1
strokes_ogs.tif
102
RTVSPost2010PropOp54
 70
     1
102
RTVSPost2010Prop55
280
     0
102
RTVSPost2010PropOp55
 70
     1
102
RTVSPost2010Prop56
140
1.0
102
RTVSPost2010PropOp56
 70
     1
102
RTVSPost2010Prop57
140
1.0
102
RTVSPost2010PropOp57
 70
     1
  0
XRECORD
  5
2A6
102
{ACAD_REACTORS
330
2A5
102
}
330
2A5
100
AcDbXrecord
280
     1
102
RTVSPost2010Prop28
280
     0
102
RTVSPost2010PropOp28
 70
     1
102
RTVSPost2010Prop29
280
     1
102
RTVSPost2010PropOp29
 70
     1
102
RTVSPost2010Prop30
280
     1
102
RTVSPost2010PropOp30
 70
     1
102
RTVSPost2010Prop31
280
     0
102
RTVSPost2010PropOp31
 70
     1
102
RTVSPost2010Prop32
280
     0
102
RTVSPost2010PropOp32
 70
     1
102
RTVSPost2010Prop33
280
     0
102
RTVSPost2010PropOp33
 70
     1
102
RTVSPost2010Prop34
280
     0
102
RTVSPost2010PropOp34
 70
     1
102
RTVSPost2010Prop35
280
     0
102
RTVSPost2010PropOp35
 70
     1
102
RTVSPost2010Prop36
280
     0
102
RTVSPost2010PropOp36
 70
     1
102
RTVSPost2010Prop37
 90
       50
102
RTVSPost2010PropOp37
 70
     1
102
RTVSPost2010Prop38
140
0.0
102
RTVSPost2010PropOp38
 70
     1
102
RTVSPost2010Prop39
140
1.0
102
RTVSPost2010PropOp39
 70
     1
102
RTVSPost2010Prop40
 90
        0
102
RTVSPost2010PropOp40
 70
     1
102
RTVSPost2010Prop41ColorIndex
 90
       18
102
RTVSPost2010Prop41ColorRGB
 90
        0
102
RTVSPost2010PropOp41
 70
     1
102
RTVSPost2010Prop42
 90
       50
102
RTVSPost2010PropOp42
 70
     1
102
RTVSPost2010Prop43
 90
        3
102
RTVSPost2010PropOp43
 70
     1
102
RTVSPost2010Prop44ColorIndex
 90
        5
102
RTVSPost2010Prop44ColorRGB
 90
      255
102
RTVSPost2010PropOp44
 70
     1
102
RTVSPost2010Prop45
280
     0
102
RTVSPost2010PropOp45
 70
     1
102
RTVSPost2010Prop46
 90
       50
102
RTVSPost2010PropOp46
 70
     1
102
RTVSPost2010Prop47
 90
       50
102
RTVSPost2010PropOp47
 70
     1
102
RTVSPost2010Prop48
 90
       50
102
RTVSPost2010PropOp48
 70
     1
102
RTVSPost2010Prop49
280
     0
102
RTVSPost2010PropOp49
 70
     1
102
RTVSPost2010Prop50
 90
       50
102
RTVSPost2010PropOp50
 70
     1
102
RTVSPost2010Prop51ColorIndex
 90
      256
102
RTVSPost2010Prop51ColorRGB
 90
-16777216
102
RTVSPost2010PropOp51
 70
     0
102
RTVSPost2010Prop52
140
1.0
102
RTVSPost2010PropOp52
 70
     0
102
RTVSPost2010Prop53
 90
        2
102
RTVSPost2010PropOp53
 70
     1
102
RTVSPost2010Prop54
  1
strokes_ogs.tif
102
RTVSPost2010PropOp54
 70
     1
102
RTVSPost2010Prop55
280
     0
102
RTVSPost2010PropOp55
 70
     1
102
RTVSPost2010Prop56
140
1.0
102
RTVSPost2010PropOp56
 70
     1
102
RTVSPost2010Prop57
140
1.0
102
RTVSPost2010PropOp57
 70
     1
  0
XRECORD
  5
2B6
102
{ACAD_REACTORS
330
2B5
102
}
330
2B5
100
AcDbXrecord
280
     1
102
RTVSPost2010Prop28
280
     0
102
RTVSPost2010PropOp28
 70
     0
102
RTVSPost2010Prop29
280
     1
102
RTVSPost2010PropOp29
 70
     0
102
RTVSPost2010Prop30
280
     1
102
RTVSPost2010PropOp30
 70
     0
102
RTVSPost2010Prop31
280
     0
102
RTVSPost2010PropOp31
 70
     0
102
RTVSPost2010Prop32
280
     0
102
RTVSPost2010PropOp32
 70
     0
102
RTVSPost2010Prop33
280
     0
102
RTVSPost2010PropOp33
 70
     0
102
RTVSPost2010Prop34
280
     0
102
RTVSPost2010PropOp34
 70
     0
102
RTVSPost2010Prop35
280
     0
102
RTVSPost2010PropOp35
 70
     0
102
RTVSPost2010Prop36
280
     0
102
RTVSPost2010PropOp36
 70
     0
102
RTVSPost2010Prop37
 90
       50
102
RTVSPost2010PropOp37
 70
     0
102
RTVSPost2010Prop38
140
0.0
102
RTVSPost2010PropOp38
 70
     0
102
RTVSPost2010Prop39
140
1.0
102
RTVSPost2010PropOp39
 70
     0
102
RTVSPost2010Prop40
 90
        0
102
RTVSPost2010PropOp40
 70
     0
102
RTVSPost2010Prop41ColorIndex
 90
       18
102
RTVSPost2010Prop41ColorRGB
 90
        0
102
RTVSPost2010PropOp41
 70
     0
102
RTVSPost2010Prop42
 90
       50
102
RTVSPost2010PropOp42
 70
     0
102
RTVSPost2010Prop43
 90
        3
102
RTVSPost2010PropOp43
 70
     0
102
RTVSPost2010Prop44ColorIndex
 90
        5
102
RTVSPost2010Prop44ColorRGB
 90
      255
102
RTVSPost2010PropOp44
 70
     0
102
RTVSPost2010Prop45
280
     0
102
RTVSPost2010PropOp45
 70
     0
102
RTVSPost2010Prop46
 90
       50
102
RTVSPost2010PropOp46
 70
     0
102
RTVSPost2010Prop47
 90
       50
102
RTVSPost2010PropOp47
 70
     0
102
RTVSPost2010Prop48
 90
       50
102
RTVSPost2010PropOp48
 70
     0
102
RTVSPost2010Prop49
280
     0
102
RTVSPost2010PropOp49
 70
     0
102
RTVSPost2010Prop50
 90
       50
102
RTVSPost2010PropOp50
 70
     0
102
RTVSPost2010Prop51ColorIndex
 90
      256
102
RTVSPost2010Prop51ColorRGB
 90
-16777216
102
RTVSPost2010PropOp51
 70
     0
102
RTVSPost2010Prop52
140
1.0
102
RTVSPost2010PropOp52
 70
     0
102
RTVSPost2010Prop53
 90
        2
102
RTVSPost2010PropOp53
 70
     0
102
RTVSPost2010Prop54
  1
strokes_ogs.tif
102
RTVSPost2010PropOp54
 70
     0
102
RTVSPost2010Prop55
280
     0
102
RTVSPost2010PropOp55
 70
     0
102
RTVSPost2010Prop56
140
1.0
102
RTVSPost2010PropOp56
 70
     0
102
RTVSPost2010Prop57
140
1.0
102
RTVSPost2010PropOp57
 70
     0
  0
XRECORD
  5
2AE
102
{ACAD_REACTORS
330
2AD
102
}
330
2AD
100
AcDbXrecord
280
     1
102
RTVSPost2010Prop28
280
     0
102
RTVSPost2010PropOp28
 70
     1
102
RTVSPost2010Prop29
280
     1
102
RTVSPost2010PropOp29
 70
     1
102
RTVSPost2010Prop30
280
     1
102
RTVSPost2010PropOp30
 70
     1
102
RTVSPost2010Prop31
280
     0
102
RTVSPost2010PropOp31
 70
     1
102
RTVSPost2010Prop32
280
     0
102
RTVSPost2010PropOp32
 70
     1
102
RTVSPost2010Prop33
280
     0
102
RTVSPost2010PropOp33
 70
     1
102
RTVSPost2010Prop34
280
     0
102
RTVSPost2010PropOp34
 70
     1
102
RTVSPost2010Prop35
280
     0
102
RTVSPost2010PropOp35
 70
     1
102
RTVSPost2010Prop36
280
     0
102
RTVSPost2010PropOp36
 70
     1
102
RTVSPost2010Prop37
 90
       50
102
RTVSPost2010PropOp37
 70
     1
102
RTVSPost2010Prop38
140
0.0
102
RTVSPost2010PropOp38
 70
     1
102
RTVSPost2010Prop39
140
1.0
102
RTVSPost2010PropOp39
 70
     1
102
RTVSPost2010Prop40
 90
        0
102
RTVSPost2010PropOp40
 70
     1
102
RTVSPost2010Prop41ColorIndex
 90
       18
102
RTVSPost2010Prop41ColorRGB
 90
        0
102
RTVSPost2010PropOp41
 70
     1
102
RTVSPost2010Prop42
 90
       50
102
RTVSPost2010PropOp42
 70
     1
102
RTVSPost2010Prop43
 90
        3
102
RTVSPost2010PropOp43
 70
     1
102
RTVSPost2010Prop44ColorIndex
 90
        5
102
RTVSPost2010Prop44ColorRGB
 90
      255
102
RTVSPost2010PropOp44
 70
     1
102
RTVSPost2010Prop45
280
     0
102
RTVSPost2010PropOp45
 70
     1
102
RTVSPost2010Prop46
 90
       50
102
RTVSPost2010PropOp46
 70
     1
102
RTVSPost2010Prop47
 90
       50
102
RTVSPost2010PropOp47
 70
     1
102
RTVSPost2010Prop48
 90
       50
102
RTVSPost2010PropOp48
 70
     1
102
RTVSPost2010Prop49
280
     0
102
RTVSPost2010PropOp49
 70
     1
102
RTVSPost2010Prop50
 90
       50
102
RTVSPost2010PropOp50
 70
     1
102
RTVSPost2010Prop51ColorIndex
 90
      256
102
RTVSPost2010Prop51ColorRGB
 90
-16777216
102
RTVSPost2010PropOp51
 70
     0
102
RTVSPost2010Prop52
140
1.0
102
RTVSPost2010PropOp52
 70
     0
102
RTVSPost2010Prop53
 90
        2
102
RTVSPost2010PropOp53
 70
     1
102
RTVSPost2010Prop54
  1
strokes_ogs.tif
102
RTVSPost2010PropOp54
 70
     1
102
RTVSPost2010Prop55
280
     0
102
RTVSPost2010PropOp55
 70
     1
102
RTVSPost2010Prop56
140
1.0
102
RTVSPost2010PropOp56
 70
     1
102
RTVSPost2010Prop57
140
1.0
102
RTVSPost2010PropOp57
 70
     1
  0
XRECORD
  5
292
102
{ACAD_REACTORS
330
291
102
}
330
291
100
AcDbXrecord
280
     1
102
RTVSPost2010Prop28
280
     0
102
RTVSPost2010PropOp28
 70
     1
102
RTVSPost2010Prop29
280
     1
102
RTVSPost2010PropOp29
 70
     1
102
RTVSPost2010Prop30
280
     1
102
RTVSPost2010PropOp30
 70
     1
102
RTVSPost2010Prop31
280
     0
102
RTVSPost2010PropOp31
 70
     1
102
RTVSPost2010Prop32
280
     0
102
RTVSPost2010PropOp32
 70
     1
102
RTVSPost2010Prop33
280
     0
102
RTVSPost2010PropOp33
 70
     1
102
RTVSPost2010Prop34
280
     0
102
RTVSPost2010PropOp34
 70
     1
102
RTVSPost2010Prop35
280
     0
102
RTVSPost2010PropOp35
 70
     1
102
RTVSPost2010Prop36
280
     0
102
RTVSPost2010PropOp36
 70
     1
102
RTVSPost2010Prop37
 90
       50
102
RTVSPost2010PropOp37
 70
     1
102
RTVSPost2010Prop38
140
0.0
102
RTVSPost2010PropOp38
 70
     1
102
RTVSPost2010Prop39
140
1.0
102
RTVSPost2010PropOp39
 70
     1
102
RTVSPost2010Prop40
 90
        0
102
RTVSPost2010PropOp40
 70
     1
102
RTVSPost2010Prop41ColorIndex
 90
       18
102
RTVSPost2010Prop41ColorRGB
 90
        0
102
RTVSPost2010PropOp41
 70
     1
102
RTVSPost2010Prop42
 90
       50
102
RTVSPost2010PropOp42
 70
     1
102
RTVSPost2010Prop43
 90
        3
102
RTVSPost2010PropOp43
 70
     1
102
RTVSPost2010Prop44ColorIndex
 90
        5
102
RTVSPost2010Prop44ColorRGB
 90
      255
102
RTVSPost2010PropOp44
 70
     1
102
RTVSPost2010Prop45
280
     0
102
RTVSPost2010PropOp45
 70
     1
102
RTVSPost2010Prop46
 90
       50
102
RTVSPost2010PropOp46
 70
     1
102
RTVSPost2010Prop47
 90
       50
102
RTVSPost2010PropOp47
 70
     1
102
RTVSPost2010Prop48
 90
       50
102
RTVSPost2010PropOp48
 70
     1
102
RTVSPost2010Prop49
280
     0
102
RTVSPost2010PropOp49
 70
     1
102
RTVSPost2010Prop50
 90
       50
102
RTVSPost2010PropOp50
 70
     1
102
RTVSPost2010Prop51ColorIndex
 90
      256
102
RTVSPost2010Prop51ColorRGB
 90
-16777216
102
RTVSPost2010PropOp51
 70
     0
102
RTVSPost2010Prop52
140
1.0
102
RTVSPost2010PropOp52
 70
     0
102
RTVSPost2010Prop53
 90
        2
102
RTVSPost2010PropOp53
 70
     1
102
RTVSPost2010Prop54
  1
strokes_ogs.tif
102
RTVSPost2010PropOp54
 70
     1
102
RTVSPost2010Prop55
280
     0
102
RTVSPost2010PropOp55
 70
     1
102
RTVSPost2010Prop56
140
1.0
102
RTVSPost2010PropOp56
 70
     1
102
RTVSPost2010Prop57
140
1.0
102
RTVSPost2010PropOp57
 70
     1
  0
XRECORD
  5
294
102
{ACAD_REACTORS
330
293
102
}
330
293
100
AcDbXrecord
280
     1
102
RTVSPost2010Prop28
280
     0
102
RTVSPost2010PropOp28
 70
     1
102
RTVSPost2010Prop29
280
     1
102
RTVSPost2010PropOp29
 70
     1
102
RTVSPost2010Prop30
280
     1
102
RTVSPost2010PropOp30
 70
     1
102
RTVSPost2010Prop31
280
     0
102
RTVSPost2010PropOp31
 70
     1
102
RTVSPost2010Prop32
280
     0
102
RTVSPost2010PropOp32
 70
     1
102
RTVSPost2010Prop33
280
     0
102
RTVSPost2010PropOp33
 70
     1
102
RTVSPost2010Prop34
280
     0
102
RTVSPost2010PropOp34
 70
     1
102
RTVSPost2010Prop35
280
     0
102
RTVSPost2010PropOp35
 70
     1
102
RTVSPost2010Prop36
280
     0
102
RTVSPost2010PropOp36
 70
     1
102
RTVSPost2010Prop37
 90
       50
102
RTVSPost2010PropOp37
 70
     1
102
RTVSPost2010Prop38
140
0.0
102
RTVSPost2010PropOp38
 70
     1
102
RTVSPost2010Prop39
140
1.0
102
RTVSPost2010PropOp39
 70
     1
102
RTVSPost2010Prop40
 90
        0
102
RTVSPost2010PropOp40
 70
     1
102
RTVSPost2010Prop41ColorIndex
 90
       18
102
RTVSPost2010Prop41ColorRGB
 90
        0
102
RTVSPost2010PropOp41
 70
     1
102
RTVSPost2010Prop42
 90
       50
102
RTVSPost2010PropOp42
 70
     1
102
RTVSPost2010Prop43
 90
        3
102
RTVSPost2010PropOp43
 70
     1
102
RTVSPost2010Prop44ColorIndex
 90
        5
102
RTVSPost2010Prop44ColorRGB
 90
      255
102
RTVSPost2010PropOp44
 70
     1
102
RTVSPost2010Prop45
280
     0
102
RTVSPost2010PropOp45
 70
     1
102
RTVSPost2010Prop46
 90
       50
102
RTVSPost2010PropOp46
 70
     1
102
RTVSPost2010Prop47
 90
       50
102
RTVSPost2010PropOp47
 70
     1
102
RTVSPost2010Prop48
 90
       50
102
RTVSPost2010PropOp48
 70
     1
102
RTVSPost2010Prop49
280
     0
102
RTVSPost2010PropOp49
 70
     1
102
RTVSPost2010Prop50
 90
       50
102
RTVSPost2010PropOp50
 70
     1
102
RTVSPost2010Prop51ColorIndex
 90
      256
102
RTVSPost2010Prop51ColorRGB
 90
-16777216
102
RTVSPost2010PropOp51
 70
     0
102
RTVSPost2010Prop52
140
1.0
102
RTVSPost2010PropOp52
 70
     0
102
RTVSPost2010Prop53
 90
        2
102
RTVSPost2010PropOp53
 70
     1
102
RTVSPost2010Prop54
  1
strokes_ogs.tif
102
RTVSPost2010PropOp54
 70
     1
102
RTVSPost2010Prop55
280
     0
102
RTVSPost2010PropOp55
 70
     1
102
RTVSPost2010Prop56
140
1.0
102
RTVSPost2010PropOp56
 70
     1
102
RTVSPost2010Prop57
140
1.0
102
RTVSPost2010PropOp57
 70
     1
  0
XRECORD
  5
296
102
{ACAD_REACTORS
330
295
102
}
330
295
100
AcDbXrecord
280
     1
102
RTVSPost2010Prop28
280
     0
102
RTVSPost2010PropOp28
 70
     1
102
RTVSPost2010Prop29
280
     1
102
RTVSPost2010PropOp29
 70
     1
102
RTVSPost2010Prop30
280
     1
102
RTVSPost2010PropOp30
 70
     1
102
RTVSPost2010Prop31
280
     0
102
RTVSPost2010PropOp31
 70
     1
102
RTVSPost2010Prop32
280
     0
102
RTVSPost2010PropOp32
 70
     1
102
RTVSPost2010Prop33
280
     0
102
RTVSPost2010PropOp33
 70
     1
102
RTVSPost2010Prop34
280
     0
102
RTVSPost2010PropOp34
 70
     1
102
RTVSPost2010Prop35
280
     0
102
RTVSPost2010PropOp35
 70
     1
102
RTVSPost2010Prop36
280
     0
102
RTVSPost2010PropOp36
 70
     1
102
RTVSPost2010Prop37
 90
       50
102
RTVSPost2010PropOp37
 70
     1
102
RTVSPost2010Prop38
140
0.0
102
RTVSPost2010PropOp38
 70
     1
102
RTVSPost2010Prop39
140
1.0
102
RTVSPost2010PropOp39
 70
     1
102
RTVSPost2010Prop40
 90
        0
102
RTVSPost2010PropOp40
 70
     1
102
RTVSPost2010Prop41ColorIndex
 90
       18
102
RTVSPost2010Prop41ColorRGB
 90
        0
102
RTVSPost2010PropOp41
 70
     1
102
RTVSPost2010Prop42
 90
       50
102
RTVSPost2010PropOp42
 70
     1
102
RTVSPost2010Prop43
 90
        3
102
RTVSPost2010PropOp43
 70
     1
102
RTVSPost2010Prop44ColorIndex
 90
        5
102
RTVSPost2010Prop44ColorRGB
 90
      255
102
RTVSPost2010PropOp44
 70
     1
102
RTVSPost2010Prop45
280
     0
102
RTVSPost2010PropOp45
 70
     1
102
RTVSPost2010Prop46
 90
       50
102
RTVSPost2010PropOp46
 70
     1
102
RTVSPost2010Prop47
 90
       50
102
RTVSPost2010PropOp47
 70
     1
102
RTVSPost2010Prop48
 90
       50
102
RTVSPost2010PropOp48
 70
     1
102
RTVSPost2010Prop49
280
     0
102
RTVSPost2010PropOp49
 70
     1
102
RTVSPost2010Prop50
 90
       50
102
RTVSPost2010PropOp50
 70
     1
102
RTVSPost2010Prop51ColorIndex
 90
      256
102
RTVSPost2010Prop51ColorRGB
 90
-16777216
102
RTVSPost2010PropOp51
 70
     0
102
RTVSPost2010Prop52
140
1.0
102
RTVSPost2010PropOp52
 70
     0
102
RTVSPost2010Prop53
 90
        2
102
RTVSPost2010PropOp53
 70
     1
102
RTVSPost2010Prop54
  1
strokes_ogs.tif
102
RTVSPost2010PropOp54
 70
     1
102
RTVSPost2010Prop55
280
     0
102
RTVSPost2010PropOp55
 70
     1
102
RTVSPost2010Prop56
140
1.0
102
RTVSPost2010PropOp56
 70
     1
102
RTVSPost2010Prop57
140
1.0
102
RTVSPost2010PropOp57
 70
     1
  0
XRECORD
  5
298
102
{ACAD_REACTORS
330
297
102
}
330
297
100
AcDbXrecord
280
     1
102
RTVSPost2010Prop28
280
     0
102
RTVSPost2010PropOp28
 70
     1
102
RTVSPost2010Prop29
280
     1
102
RTVSPost2010PropOp29
 70
     1
102
RTVSPost2010Prop30
280
     1
102
RTVSPost2010PropOp30
 70
     1
102
RTVSPost2010Prop31
280
     0
102
RTVSPost2010PropOp31
 70
     1
102
RTVSPost2010Prop32
280
     0
102
RTVSPost2010PropOp32
 70
     1
102
RTVSPost2010Prop33
280
     0
102
RTVSPost2010PropOp33
 70
     1
102
RTVSPost2010Prop34
280
     0
102
RTVSPost2010PropOp34
 70
     1
102
RTVSPost2010Prop35
280
     0
102
RTVSPost2010PropOp35
 70
     1
102
RTVSPost2010Prop36
280
     0
102
RTVSPost2010PropOp36
 70
     1
102
RTVSPost2010Prop37
 90
       50
102
RTVSPost2010PropOp37
 70
     1
102
RTVSPost2010Prop38
140
0.0
102
RTVSPost2010PropOp38
 70
     1
102
RTVSPost2010Prop39
140
1.0
102
RTVSPost2010PropOp39
 70
     1
102
RTVSPost2010Prop40
 90
        0
102
RTVSPost2010PropOp40
 70
     1
102
RTVSPost2010Prop41ColorIndex
 90
       18
102
RTVSPost2010Prop41ColorRGB
 90
        0
102
RTVSPost2010PropOp41
 70
     1
102
RTVSPost2010Prop42
 90
       50
102
RTVSPost2010PropOp42
 70
     1
102
RTVSPost2010Prop43
 90
        3
102
RTVSPost2010PropOp43
 70
     1
102
RTVSPost2010Prop44ColorIndex
 90
        5
102
RTVSPost2010Prop44ColorRGB
 90
      255
102
RTVSPost2010PropOp44
 70
     1
102
RTVSPost2010Prop45
280
     0
102
RTVSPost2010PropOp45
 70
     1
102
RTVSPost2010Prop46
 90
       50
102
RTVSPost2010PropOp46
 70
     1
102
RTVSPost2010Prop47
 90
       50
102
RTVSPost2010PropOp47
 70
     1
102
RTVSPost2010Prop48
 90
       50
102
RTVSPost2010PropOp48
 70
     1
102
RTVSPost2010Prop49
280
     0
102
RTVSPost2010PropOp49
 70
     1
102
RTVSPost2010Prop50
 90
       50
102
RTVSPost2010PropOp50
 70
     1
102
RTVSPost2010Prop51ColorIndex
 90
      256
102
RTVSPost2010Prop51ColorRGB
 90
-16777216
102
RTVSPost2010PropOp51
 70
     0
102
RTVSPost2010Prop52
140
1.0
102
RTVSPost2010PropOp52
 70
     0
102
RTVSPost2010Prop53
 90
        2
102
RTVSPost2010PropOp53
 70
     1
102
RTVSPost2010Prop54
  1
strokes_ogs.tif
102
RTVSPost2010PropOp54
 70
     1
102
RTVSPost2010Prop55
280
     0
102
RTVSPost2010PropOp55
 70
     1
102
RTVSPost2010Prop56
140
1.0
102
RTVSPost2010PropOp56
 70
     1
102
RTVSPost2010Prop57
140
1.0
102
RTVSPost2010PropOp57
 70
     1
  0
XRECORD
  5
29E
102
{ACAD_REACTORS
330
29D
102
}
330
29D
100
AcDbXrecord
280
     1
102
RTVSPost2010Prop28
280
     0
102
RTVSPost2010PropOp28
 70
     1
102
RTVSPost2010Prop29
280
     1
102
RTVSPost2010PropOp29
 70
     1
102
RTVSPost2010Prop30
280
     1
102
RTVSPost2010PropOp30
 70
     1
102
RTVSPost2010Prop31
280
     0
102
RTVSPost2010PropOp31
 70
     1
102
RTVSPost2010Prop32
280
     0
102
RTVSPost2010PropOp32
 70
     1
102
RTVSPost2010Prop33
280
     0
102
RTVSPost2010PropOp33
 70
     1
102
RTVSPost2010Prop34
280
     0
102
RTVSPost2010PropOp34
 70
     1
102
RTVSPost2010Prop35
280
     0
102
RTVSPost2010PropOp35
 70
     1
102
RTVSPost2010Prop36
280
     0
102
RTVSPost2010PropOp36
 70
     1
102
RTVSPost2010Prop37
 90
       50
102
RTVSPost2010PropOp37
 70
     1
102
RTVSPost2010Prop38
140
0.0
102
RTVSPost2010PropOp38
 70
     1
102
RTVSPost2010Prop39
140
1.0
102
RTVSPost2010PropOp39
 70
     1
102
RTVSPost2010Prop40
 90
        0
102
RTVSPost2010PropOp40
 70
     1
102
RTVSPost2010Prop41ColorIndex
 90
       18
102
RTVSPost2010Prop41ColorRGB
 90
        0
102
RTVSPost2010PropOp41
 70
     1
102
RTVSPost2010Prop42
 90
       50
102
RTVSPost2010PropOp42
 70
     1
102
RTVSPost2010Prop43
 90
        3
102
RTVSPost2010PropOp43
 70
     1
102
RTVSPost2010Prop44ColorIndex
 90
        5
102
RTVSPost2010Prop44ColorRGB
 90
      255
102
RTVSPost2010PropOp44
 70
     1
102
RTVSPost2010Prop45
280
     0
102
RTVSPost2010PropOp45
 70
     1
102
RTVSPost2010Prop46
 90
       50
102
RTVSPost2010PropOp46
 70
     1
102
RTVSPost2010Prop47
 90
       50
102
RTVSPost2010PropOp47
 70
     1
102
RTVSPost2010Prop48
 90
       50
102
RTVSPost2010PropOp48
 70
     1
102
RTVSPost2010Prop49
280
     0
102
RTVSPost2010PropOp49
 70
     1
102
RTVSPost2010Prop50
 90
       50
102
RTVSPost2010PropOp50
 70
     1
102
RTVSPost2010Prop51ColorIndex
 90
      256
102
RTVSPost2010Prop51ColorRGB
 90
-16777216
102
RTVSPost2010PropOp51
 70
     0
102
RTVSPost2010Prop52
140
1.0
102
RTVSPost2010PropOp52
 70
     0
102
RTVSPost2010Prop53
 90
        2
102
RTVSPost2010PropOp53
 70
     1
102
RTVSPost2010Prop54
  1
strokes_ogs.tif
102
RTVSPost2010PropOp54
 70
     1
102
RTVSPost2010Prop55
280
     0
102
RTVSPost2010PropOp55
 70
     1
102
RTVSPost2010Prop56
140
1.0
102
RTVSPost2010PropOp56
 70
     1
102
RTVSPost2010Prop57
140
1.0
102
RTVSPost2010PropOp57
 70
     1
  0
XRECORD
  5
2B2
102
{ACAD_REACTORS
330
2B1
102
}
330
2B1
100
AcDbXrecord
280
     1
102
RTVSPost2010Prop28
280
     0
102
RTVSPost2010PropOp28
 70
     0
102
RTVSPost2010Prop29
280
     1
102
RTVSPost2010PropOp29
 70
     0
102
RTVSPost2010Prop30
280
     1
102
RTVSPost2010PropOp30
 70
     0
102
RTVSPost2010Prop31
280
     0
102
RTVSPost2010PropOp31
 70
     0
102
RTVSPost2010Prop32
280
     0
102
RTVSPost2010PropOp32
 70
     0
102
RTVSPost2010Prop33
280
     0
102
RTVSPost2010PropOp33
 70
     0
102
RTVSPost2010Prop34
280
     0
102
RTVSPost2010PropOp34
 70
     0
102
RTVSPost2010Prop35
280
     0
102
RTVSPost2010PropOp35
 70
     0
102
RTVSPost2010Prop36
280
     0
102
RTVSPost2010PropOp36
 70
     0
102
RTVSPost2010Prop37
 90
       50
102
RTVSPost2010PropOp37
 70
     0
102
RTVSPost2010Prop38
140
0.0
102
RTVSPost2010PropOp38
 70
     0
102
RTVSPost2010Prop39
140
1.0
102
RTVSPost2010PropOp39
 70
     0
102
RTVSPost2010Prop40
 90
        0
102
RTVSPost2010PropOp40
 70
     0
102
RTVSPost2010Prop41ColorIndex
 90
       18
102
RTVSPost2010Prop41ColorRGB
 90
        0
102
RTVSPost2010PropOp41
 70
     0
102
RTVSPost2010Prop42
 90
       50
102
RTVSPost2010PropOp42
 70
     0
102
RTVSPost2010Prop43
 90
        3
102
RTVSPost2010PropOp43
 70
     0
102
RTVSPost2010Prop44ColorIndex
 90
        5
102
RTVSPost2010Prop44ColorRGB
 90
      255
102
RTVSPost2010PropOp44
 70
     0
102
RTVSPost2010Prop45
280
     0
102
RTVSPost2010PropOp45
 70
     0
102
RTVSPost2010Prop46
 90
       50
102
RTVSPost2010PropOp46
 70
     0
102
RTVSPost2010Prop47
 90
       50
102
RTVSPost2010PropOp47
 70
     0
102
RTVSPost2010Prop48
 90
       50
102
RTVSPost2010PropOp48
 70
     0
102
RTVSPost2010Prop49
280
     0
102
RTVSPost2010PropOp49
 70
     0
102
RTVSPost2010Prop50
 90
       50
102
RTVSPost2010PropOp50
 70
     0
102
RTVSPost2010Prop51ColorIndex
 90
      256
102
RTVSPost2010Prop51ColorRGB
 90
-16777216
102
RTVSPost2010PropOp51
 70
     0
102
RTVSPost2010Prop52
140
1.0
102
RTVSPost2010PropOp52
 70
     0
102
RTVSPost2010Prop53
 90
        2
102
RTVSPost2010PropOp53
 70
     0
102
RTVSPost2010Prop54
  1
strokes_ogs.tif
102
RTVSPost2010PropOp54
 70
     0
102
RTVSPost2010Prop55
280
     0
102
RTVSPost2010PropOp55
 70
     0
102
RTVSPost2010Prop56
140
1.0
102
RTVSPost2010PropOp56
 70
     0
102
RTVSPost2010Prop57
140
1.0
102
RTVSPost2010PropOp57
 70
     0
  0
XRECORD
  5
2AC
102
{ACAD_REACTORS
330
2AB
102
}
330
2AB
100
AcDbXrecord
280
     1
102
RTVSPost2010Prop28
280
     0
102
RTVSPost2010PropOp28
 70
     1
102
RTVSPost2010Prop29
280
     1
102
RTVSPost2010PropOp29
 70
     1
102
RTVSPost2010Prop30
280
     1
102
RTVSPost2010PropOp30
 70
     1
102
RTVSPost2010Prop31
280
     0
102
RTVSPost2010PropOp31
 70
     1
102
RTVSPost2010Prop32
280
     0
102
RTVSPost2010PropOp32
 70
     1
102
RTVSPost2010Prop33
280
     0
102
RTVSPost2010PropOp33
 70
     1
102
RTVSPost2010Prop34
280
     0
102
RTVSPost2010PropOp34
 70
     1
102
RTVSPost2010Prop35
280
     0
102
RTVSPost2010PropOp35
 70
     1
102
RTVSPost2010Prop36
280
     0
102
RTVSPost2010PropOp36
 70
     1
102
RTVSPost2010Prop37
 90
       50
102
RTVSPost2010PropOp37
 70
     1
102
RTVSPost2010Prop38
140
0.0
102
RTVSPost2010PropOp38
 70
     1
102
RTVSPost2010Prop39
140
1.0
102
RTVSPost2010PropOp39
 70
     1
102
RTVSPost2010Prop40
 90
        0
102
RTVSPost2010PropOp40
 70
     1
102
RTVSPost2010Prop41ColorIndex
 90
       18
102
RTVSPost2010Prop41ColorRGB
 90
        0
102
RTVSPost2010PropOp41
 70
     1
102
RTVSPost2010Prop42
 90
       50
102
RTVSPost2010PropOp42
 70
     1
102
RTVSPost2010Prop43
 90
        3
102
RTVSPost2010PropOp43
 70
     1
102
RTVSPost2010Prop44ColorIndex
 90
        5
102
RTVSPost2010Prop44ColorRGB
 90
      255
102
RTVSPost2010PropOp44
 70
     1
102
RTVSPost2010Prop45
280
     0
102
RTVSPost2010PropOp45
 70
     1
102
RTVSPost2010Prop46
 90
       50
102
RTVSPost2010PropOp46
 70
     1
102
RTVSPost2010Prop47
 90
       50
102
RTVSPost2010PropOp47
 70
     1
102
RTVSPost2010Prop48
 90
       50
102
RTVSPost2010PropOp48
 70
     1
102
RTVSPost2010Prop49
280
     0
102
RTVSPost2010PropOp49
 70
     1
102
RTVSPost2010Prop50
 90
       50
102
RTVSPost2010PropOp50
 70
     1
102
RTVSPost2010Prop51ColorIndex
 90
      256
102
RTVSPost2010Prop51ColorRGB
 90
-16777216
102
RTVSPost2010PropOp51
 70
     0
102
RTVSPost2010Prop52
140
1.0
102
RTVSPost2010PropOp52
 70
     0
102
RTVSPost2010Prop53
 90
        2
102
RTVSPost2010PropOp53
 70
     1
102
RTVSPost2010Prop54
  1
strokes_ogs.tif
102
RTVSPost2010PropOp54
 70
     1
102
RTVSPost2010Prop55
280
     0
102
RTVSPost2010PropOp55
 70
     1
102
RTVSPost2010Prop56
140
1.0
102
RTVSPost2010PropOp56
 70
     1
102
RTVSPost2010Prop57
140
1.0
102
RTVSPost2010PropOp57
 70
     1
  0
XRECORD
  5
2B4
102
{ACAD_REACTORS
330
2B3
102
}
330
2B3
100
AcDbXrecord
280
     1
102
RTVSPost2010Prop28
280
     0
102
RTVSPost2010PropOp28
 70
     0
102
RTVSPost2010Prop29
280
     1
102
RTVSPost2010PropOp29
 70
     0
102
RTVSPost2010Prop30
280
     1
102
RTVSPost2010PropOp30
 70
     0
102
RTVSPost2010Prop31
280
     0
102
RTVSPost2010PropOp31
 70
     0
102
RTVSPost2010Prop32
280
     0
102
RTVSPost2010PropOp32
 70
     0
102
RTVSPost2010Prop33
280
     0
102
RTVSPost2010PropOp33
 70
     0
102
RTVSPost2010Prop34
280
     0
102
RTVSPost2010PropOp34
 70
     0
102
RTVSPost2010Prop35
280
     0
102
RTVSPost2010PropOp35
 70
     0
102
RTVSPost2010Prop36
280
     0
102
RTVSPost2010PropOp36
 70
     0
102
RTVSPost2010Prop37
 90
       50
102
RTVSPost2010PropOp37
 70
     0
102
RTVSPost2010Prop38
140
0.0
102
RTVSPost2010PropOp38
 70
     0
102
RTVSPost2010Prop39
140
1.0
102
RTVSPost2010PropOp39
 70
     0
102
RTVSPost2010Prop40
 90
        0
102
RTVSPost2010PropOp40
 70
     0
102
RTVSPost2010Prop41ColorIndex
 90
       18
102
RTVSPost2010Prop41ColorRGB
 90
        0
102
RTVSPost2010PropOp41
 70
     0
102
RTVSPost2010Prop42
 90
       50
102
RTVSPost2010PropOp42
 70
     0
102
RTVSPost2010Prop43
 90
        3
102
RTVSPost2010PropOp43
 70
     0
102
RTVSPost2010Prop44ColorIndex
 90
        5
102
RTVSPost2010Prop44ColorRGB
 90
      255
102
RTVSPost2010PropOp44
 70
     0
102
RTVSPost2010Prop45
280
     0
102
RTVSPost2010PropOp45
 70
     0
102
RTVSPost2010Prop46
 90
       50
102
RTVSPost2010PropOp46
 70
     0
102
RTVSPost2010Prop47
 90
       50
102
RTVSPost2010PropOp47
 70
     0
102
RTVSPost2010Prop48
 90
       50
102
RTVSPost2010PropOp48
 70
     0
102
RTVSPost2010Prop49
280
     0
102
RTVSPost2010PropOp49
 70
     0
102
RTVSPost2010Prop50
 90
       50
102
RTVSPost2010PropOp50
 70
     0
102
RTVSPost2010Prop51ColorIndex
 90
      256
102
RTVSPost2010Prop51ColorRGB
 90
-16777216
102
RTVSPost2010PropOp51
 70
     0
102
RTVSPost2010Prop52
140
1.0
102
RTVSPost2010PropOp52
 70
     0
102
RTVSPost2010Prop53
 90
        2
102
RTVSPost2010PropOp53
 70
     0
102
RTVSPost2010Prop54
  1
strokes_ogs.tif
102
RTVSPost2010PropOp54
 70
     0
102
RTVSPost2010Prop55
280
     0
102
RTVSPost2010PropOp55
 70
     0
102
RTVSPost2010Prop56
140
1.0
102
RTVSPost2010PropOp56
 70
     0
102
RTVSPost2010Prop57
140
1.0
102
RTVSPost2010PropOp57
 70
     0
  0
XRECORD
  5
2A2
102
{ACAD_REACTORS
330
2A1
102
}
330
2A1
100
AcDbXrecord
280
     1
102
RTVSPost2010Prop28
280
     0
102
RTVSPost2010PropOp28
 70
     1
102
RTVSPost2010Prop29
280
     1
102
RTVSPost2010PropOp29
 70
     1
102
RTVSPost2010Prop30
280
     1
102
RTVSPost2010PropOp30
 70
     1
102
RTVSPost2010Prop31
280
     0
102
RTVSPost2010PropOp31
 70
     1
102
RTVSPost2010Prop32
280
     0
102
RTVSPost2010PropOp32
 70
     1
102
RTVSPost2010Prop33
280
     0
102
RTVSPost2010PropOp33
 70
     1
102
RTVSPost2010Prop34
280
     0
102
RTVSPost2010PropOp34
 70
     1
102
RTVSPost2010Prop35
280
     0
102
RTVSPost2010PropOp35
 70
     1
102
RTVSPost2010Prop36
280
     0
102
RTVSPost2010PropOp36
 70
     1
102
RTVSPost2010Prop37
 90
       50
102
RTVSPost2010PropOp37
 70
     1
102
RTVSPost2010Prop38
140
0.0
102
RTVSPost2010PropOp38
 70
     1
102
RTVSPost2010Prop39
140
1.0
102
RTVSPost2010PropOp39
 70
     1
102
RTVSPost2010Prop40
 90
        0
102
RTVSPost2010PropOp40
 70
     1
102
RTVSPost2010Prop41ColorIndex
 90
       18
102
RTVSPost2010Prop41ColorRGB
 90
        0
102
RTVSPost2010PropOp41
 70
     1
102
RTVSPost2010Prop42
 90
       50
102
RTVSPost2010PropOp42
 70
     1
102
RTVSPost2010Prop43
 90
        3
102
RTVSPost2010PropOp43
 70
     1
102
RTVSPost2010Prop44ColorIndex
 90
        5
102
RTVSPost2010Prop44ColorRGB
 90
      255
102
RTVSPost2010PropOp44
 70
     1
102
RTVSPost2010Prop45
280
     0
102
RTVSPost2010PropOp45
 70
     1
102
RTVSPost2010Prop46
 90
       50
102
RTVSPost2010PropOp46
 70
     1
102
RTVSPost2010Prop47
 90
       50
102
RTVSPost2010PropOp47
 70
     1
102
RTVSPost2010Prop48
 90
       50
102
RTVSPost2010PropOp48
 70
     1
102
RTVSPost2010Prop49
280
     0
102
RTVSPost2010PropOp49
 70
     1
102
RTVSPost2010Prop50
 90
       50
102
RTVSPost2010PropOp50
 70
     1
102
RTVSPost2010Prop51ColorIndex
 90
      256
102
RTVSPost2010Prop51ColorRGB
 90
-16777216
102
RTVSPost2010PropOp51
 70
     0
102
RTVSPost2010Prop52
140
1.0
102
RTVSPost2010PropOp52
 70
     0
102
RTVSPost2010Prop53
 90
        2
102
RTVSPost2010PropOp53
 70
     1
102
RTVSPost2010Prop54
  1
strokes_ogs.tif
102
RTVSPost2010PropOp54
 70
     1
102
RTVSPost2010Prop55
280
     0
102
RTVSPost2010PropOp55
 70
     1
102
RTVSPost2010Prop56
140
1.0
102
RTVSPost2010PropOp56
 70
     1
102
RTVSPost2010Prop57
140
1.0
102
RTVSPost2010PropOp57
 70
     1
  0
XRECORD
  5
2C0
102
{ACAD_REACTORS
330
2BF
102
}
330
2BF
100
AcDbXrecord
280
     1
102
RTVSPost2010Prop28
280
     0
102
RTVSPost2010PropOp28
 70
     1
102
RTVSPost2010Prop29
280
     1
102
RTVSPost2010PropOp29
 70
     1
102
RTVSPost2010Prop30
280
     1
102
RTVSPost2010PropOp30
 70
     1
102
RTVSPost2010Prop31
280
     0
102
RTVSPost2010PropOp31
 70
     1
102
RTVSPost2010Prop32
280
     0
102
RTVSPost2010PropOp32
 70
     1
102
RTVSPost2010Prop33
280
     0
102
RTVSPost2010PropOp33
 70
     1
102
RTVSPost2010Prop34
280
     0
102
RTVSPost2010PropOp34
 70
     1
102
RTVSPost2010Prop35
280
     0
102
RTVSPost2010PropOp35
 70
     1
102
RTVSPost2010Prop36
280
     0
102
RTVSPost2010PropOp36
 70
     1
102
RTVSPost2010Prop37
 90
       50
102
RTVSPost2010PropOp37
 70
     1
102
RTVSPost2010Prop38
140
0.0
102
RTVSPost2010PropOp38
 70
     1
102
RTVSPost2010Prop39
140
1.0
102
RTVSPost2010PropOp39
 70
     1
102
RTVSPost2010Prop40
 90
        0
102
RTVSPost2010PropOp40
 70
     1
102
RTVSPost2010Prop41ColorIndex
 90
       18
102
RTVSPost2010Prop41ColorRGB
 90
        0
102
RTVSPost2010PropOp41
 70
     1
102
RTVSPost2010Prop42
 90
       50
102
RTVSPost2010PropOp42
 70
     1
102
RTVSPost2010Prop43
 90
        3
102
RTVSPost2010PropOp43
 70
     1
102
RTVSPost2010Prop44ColorIndex
 90
        5
102
RTVSPost2010Prop44ColorRGB
 90
      255
102
RTVSPost2010PropOp44
 70
     1
102
RTVSPost2010Prop45
280
     0
102
RTVSPost2010PropOp45
 70
     1
102
RTVSPost2010Prop46
 90
       50
102
RTVSPost2010PropOp46
 70
     1
102
RTVSPost2010Prop47
 90
       50
102
RTVSPost2010PropOp47
 70
     1
102
RTVSPost2010Prop48
 90
       50
102
RTVSPost2010PropOp48
 70
     1
102
RTVSPost2010Prop49
280
     0
102
RTVSPost2010PropOp49
 70
     1
102
RTVSPost2010Prop50
 90
       50
102
RTVSPost2010PropOp50
 70
     1
102
RTVSPost2010Prop51ColorIndex
 90
      256
102
RTVSPost2010Prop51ColorRGB
 90
-16777216
102
RTVSPost2010PropOp51
 70
     0
102
RTVSPost2010Prop52
140
1.0
102
RTVSPost2010PropOp52
 70
     0
102
RTVSPost2010Prop53
 90
        2
102
RTVSPost2010PropOp53
 70
     1
102
RTVSPost2010Prop54
  1
strokes_ogs.tif
102
RTVSPost2010PropOp54
 70
     1
102
RTVSPost2010Prop55
280
     0
102
RTVSPost2010PropOp55
 70
     1
102
RTVSPost2010Prop56
140
1.0
102
RTVSPost2010PropOp56
 70
     1
102
RTVSPost2010Prop57
140
1.0
102
RTVSPost2010PropOp57
 70
     1
  0
XRECORD
  5
2BE
102
{ACAD_REACTORS
330
2BD
102
}
330
2BD
100
AcDbXrecord
280
     1
102
RTVSPost2010Prop28
280
     0
102
RTVSPost2010PropOp28
 70
     1
102
RTVSPost2010Prop29
280
     1
102
RTVSPost2010PropOp29
 70
     1
102
RTVSPost2010Prop30
280
     1
102
RTVSPost2010PropOp30
 70
     1
102
RTVSPost2010Prop31
280
     0
102
RTVSPost2010PropOp31
 70
     1
102
RTVSPost2010Prop32
280
     0
102
RTVSPost2010PropOp32
 70
     1
102
RTVSPost2010Prop33
280
     0
102
RTVSPost2010PropOp33
 70
     1
102
RTVSPost2010Prop34
280
     0
102
RTVSPost2010PropOp34
 70
     1
102
RTVSPost2010Prop35
280
     0
102
RTVSPost2010PropOp35
 70
     1
102
RTVSPost2010Prop36
280
     0
102
RTVSPost2010PropOp36
 70
     1
102
RTVSPost2010Prop37
 90
       50
102
RTVSPost2010PropOp37
 70
     1
102
RTVSPost2010Prop38
140
0.0
102
RTVSPost2010PropOp38
 70
     1
102
RTVSPost2010Prop39
140
1.0
102
RTVSPost2010PropOp39
 70
     1
102
RTVSPost2010Prop40
 90
        0
102
RTVSPost2010PropOp40
 70
     1
102
RTVSPost2010Prop41ColorIndex
 90
       18
102
RTVSPost2010Prop41ColorRGB
 90
        0
102
RTVSPost2010PropOp41
 70
     1
102
RTVSPost2010Prop42
 90
       50
102
RTVSPost2010PropOp42
 70
     1
102
RTVSPost2010Prop43
 90
        3
102
RTVSPost2010PropOp43
 70
     1
102
RTVSPost2010Prop44ColorIndex
 90
        5
102
RTVSPost2010Prop44ColorRGB
 90
      255
102
RTVSPost2010PropOp44
 70
     1
102
RTVSPost2010Prop45
280
     0
102
RTVSPost2010PropOp45
 70
     1
102
RTVSPost2010Prop46
 90
       50
102
RTVSPost2010PropOp46
 70
     1
102
RTVSPost2010Prop47
 90
       50
102
RTVSPost2010PropOp47
 70
     1
102
RTVSPost2010Prop48
 90
       50
102
RTVSPost2010PropOp48
 70
     1
102
RTVSPost2010Prop49
280
     0
102
RTVSPost2010PropOp49
 70
     1
102
RTVSPost2010Prop50
 90
       50
102
RTVSPost2010PropOp50
 70
     1
102
RTVSPost2010Prop51ColorIndex
 90
      256
102
RTVSPost2010Prop51ColorRGB
 90
-16777216
102
RTVSPost2010PropOp51
 70
     0
102
RTVSPost2010Prop52
140
1.0
102
RTVSPost2010PropOp52
 70
     0
102
RTVSPost2010Prop53
 90
        2
102
RTVSPost2010PropOp53
 70
     1
102
RTVSPost2010Prop54
  1
strokes_ogs.tif
102
RTVSPost2010PropOp54
 70
     1
102
RTVSPost2010Prop55
280
     0
102
RTVSPost2010PropOp55
 70
     1
102
RTVSPost2010Prop56
140
1.0
102
RTVSPost2010PropOp56
 70
     1
102
RTVSPost2010Prop57
140
1.0
102
RTVSPost2010PropOp57
 70
     1
  0
XRECORD
  5
2B8
102
{ACAD_REACTORS
330
2B7
102
}
330
2B7
100
AcDbXrecord
280
     1
102
RTVSPost2010Prop28
280
     0
102
RTVSPost2010PropOp28
 70
     1
102
RTVSPost2010Prop29
280
     1
102
RTVSPost2010PropOp29
 70
     1
102
RTVSPost2010Prop30
280
     1
102
RTVSPost2010PropOp30
 70
     1
102
RTVSPost2010Prop31
280
     0
102
RTVSPost2010PropOp31
 70
     1
102
RTVSPost2010Prop32
280
     0
102
RTVSPost2010PropOp32
 70
     1
102
RTVSPost2010Prop33
280
     0
102
RTVSPost2010PropOp33
 70
     1
102
RTVSPost2010Prop34
280
     0
102
RTVSPost2010PropOp34
 70
     1
102
RTVSPost2010Prop35
280
     0
102
RTVSPost2010PropOp35
 70
     1
102
RTVSPost2010Prop36
280
     0
102
RTVSPost2010PropOp36
 70
     1
102
RTVSPost2010Prop37
 90
       50
102
RTVSPost2010PropOp37
 70
     1
102
RTVSPost2010Prop38
140
0.0
102
RTVSPost2010PropOp38
 70
     1
102
RTVSPost2010Prop39
140
1.0
102
RTVSPost2010PropOp39
 70
     1
102
RTVSPost2010Prop40
 90
        0
102
RTVSPost2010PropOp40
 70
     1
102
RTVSPost2010Prop41ColorIndex
 90
       18
102
RTVSPost2010Prop41ColorRGB
 90
        0
102
RTVSPost2010PropOp41
 70
     1
102
RTVSPost2010Prop42
 90
       50
102
RTVSPost2010PropOp42
 70
     1
102
RTVSPost2010Prop43
 90
        3
102
RTVSPost2010PropOp43
 70
     1
102
RTVSPost2010Prop44ColorIndex
 90
        5
102
RTVSPost2010Prop44ColorRGB
 90
      255
102
RTVSPost2010PropOp44
 70
     1
102
RTVSPost2010Prop45
280
     0
102
RTVSPost2010PropOp45
 70
     1
102
RTVSPost2010Prop46
 90
       50
102
RTVSPost2010PropOp46
 70
     1
102
RTVSPost2010Prop47
 90
       50
102
RTVSPost2010PropOp47
 70
     1
102
RTVSPost2010Prop48
 90
       50
102
RTVSPost2010PropOp48
 70
     1
102
RTVSPost2010Prop49
280
     0
102
RTVSPost2010PropOp49
 70
     1
102
RTVSPost2010Prop50
 90
       50
102
RTVSPost2010PropOp50
 70
     1
102
RTVSPost2010Prop51ColorIndex
 90
      256
102
RTVSPost2010Prop51ColorRGB
 90
-16777216
102
RTVSPost2010PropOp51
 70
     0
102
RTVSPost2010Prop52
140
1.0
102
RTVSPost2010PropOp52
 70
     0
102
RTVSPost2010Prop53
 90
        2
102
RTVSPost2010PropOp53
 70
     1
102
RTVSPost2010Prop54
  1
strokes_ogs.tif
102
RTVSPost2010PropOp54
 70
     1
102
RTVSPost2010Prop55
280
     0
102
RTVSPost2010PropOp55
 70
     1
102
RTVSPost2010Prop56
140
1.0
102
RTVSPost2010PropOp56
 70
     1
102
RTVSPost2010Prop57
140
1.0
102
RTVSPost2010PropOp57
 70
     1
  0
XRECORD
  5
2BA
102
{ACAD_REACTORS
330
2B9
102
}
330
2B9
100
AcDbXrecord
280
     1
102
RTVSPost2010Prop28
280
     0
102
RTVSPost2010PropOp28
 70
     1
102
RTVSPost2010Prop29
280
     1
102
RTVSPost2010PropOp29
 70
     1
102
RTVSPost2010Prop30
280
     1
102
RTVSPost2010PropOp30
 70
     1
102
RTVSPost2010Prop31
280
     0
102
RTVSPost2010PropOp31
 70
     1
102
RTVSPost2010Prop32
280
     0
102
RTVSPost2010PropOp32
 70
     1
102
RTVSPost2010Prop33
280
     0
102
RTVSPost2010PropOp33
 70
     1
102
RTVSPost2010Prop34
280
     0
102
RTVSPost2010PropOp34
 70
     1
102
RTVSPost2010Prop35
280
     0
102
RTVSPost2010PropOp35
 70
     1
102
RTVSPost2010Prop36
280
     0
102
RTVSPost2010PropOp36
 70
     1
102
RTVSPost2010Prop37
 90
       50
102
RTVSPost2010PropOp37
 70
     1
102
RTVSPost2010Prop38
140
0.0
102
RTVSPost2010PropOp38
 70
     1
102
RTVSPost2010Prop39
140
1.0
102
RTVSPost2010PropOp39
 70
     1
102
RTVSPost2010Prop40
 90
        0
102
RTVSPost2010PropOp40
 70
     1
102
RTVSPost2010Prop41ColorIndex
 90
       18
102
RTVSPost2010Prop41ColorRGB
 90
        0
102
RTVSPost2010PropOp41
 70
     1
102
RTVSPost2010Prop42
 90
       50
102
RTVSPost2010PropOp42
 70
     1
102
RTVSPost2010Prop43
 90
        3
102
RTVSPost2010PropOp43
 70
     1
102
RTVSPost2010Prop44ColorIndex
 90
        5
102
RTVSPost2010Prop44ColorRGB
 90
      255
102
RTVSPost2010PropOp44
 70
     1
102
RTVSPost2010Prop45
280
     0
102
RTVSPost2010PropOp45
 70
     1
102
RTVSPost2010Prop46
 90
       50
102
RTVSPost2010PropOp46
 70
     1
102
RTVSPost2010Prop47
 90
       50
102
RTVSPost2010PropOp47
 70
     1
102
RTVSPost2010Prop48
 90
       50
102
RTVSPost2010PropOp48
 70
     1
102
RTVSPost2010Prop49
280
     0
102
RTVSPost2010PropOp49
 70
     1
102
RTVSPost2010Prop50
 90
       50
102
RTVSPost2010PropOp50
 70
     1
102
RTVSPost2010Prop51ColorIndex
 90
      256
102
RTVSPost2010Prop51ColorRGB
 90
-16777216
102
RTVSPost2010PropOp51
 70
     0
102
RTVSPost2010Prop52
140
1.0
102
RTVSPost2010PropOp52
 70
     0
102
RTVSPost2010Prop53
 90
        2
102
RTVSPost2010PropOp53
 70
     1
102
RTVSPost2010Prop54
  1
strokes_ogs.tif
102
RTVSPost2010PropOp54
 70
     1
102
RTVSPost2010Prop55
280
     0
102
RTVSPost2010PropOp55
 70
     1
102
RTVSPost2010Prop56
140
1.0
102
RTVSPost2010PropOp56
 70
     1
102
RTVSPost2010Prop57
140
1.0
102
RTVSPost2010PropOp57
 70
     1
  0
XRECORD
  5
2AA
102
{ACAD_REACTORS
330
2A9
102
}
330
2A9
100
AcDbXrecord
280
     1
102
RTVSPost2010Prop28
280
     0
102
RTVSPost2010PropOp28
 70
     1
102
RTVSPost2010Prop29
280
     1
102
RTVSPost2010PropOp29
 70
     1
102
RTVSPost2010Prop30
280
     1
102
RTVSPost2010PropOp30
 70
     1
102
RTVSPost2010Prop31
280
     0
102
RTVSPost2010PropOp31
 70
     1
102
RTVSPost2010Prop32
280
     0
102
RTVSPost2010PropOp32
 70
     1
102
RTVSPost2010Prop33
280
     0
102
RTVSPost2010PropOp33
 70
     1
102
RTVSPost2010Prop34
280
     0
102
RTVSPost2010PropOp34
 70
     1
102
RTVSPost2010Prop35
280
     0
102
RTVSPost2010PropOp35
 70
     1
102
RTVSPost2010Prop36
280
     0
102
RTVSPost2010PropOp36
 70
     1
102
RTVSPost2010Prop37
 90
       50
102
RTVSPost2010PropOp37
 70
     1
102
RTVSPost2010Prop38
140
0.0
102
RTVSPost2010PropOp38
 70
     1
102
RTVSPost2010Prop39
140
1.0
102
RTVSPost2010PropOp39
 70
     1
102
RTVSPost2010Prop40
 90
        0
102
RTVSPost2010PropOp40
 70
     1
102
RTVSPost2010Prop41ColorIndex
 90
       18
102
RTVSPost2010Prop41ColorRGB
 90
        0
102
RTVSPost2010PropOp41
 70
     1
102
RTVSPost2010Prop42
 90
       50
102
RTVSPost2010PropOp42
 70
     1
102
RTVSPost2010Prop43
 90
        3
102
RTVSPost2010PropOp43
 70
     1
102
RTVSPost2010Prop44ColorIndex
 90
        5
102
RTVSPost2010Prop44ColorRGB
 90
      255
102
RTVSPost2010PropOp44
 70
     1
102
RTVSPost2010Prop45
280
     0
102
RTVSPost2010PropOp45
 70
     1
102
RTVSPost2010Prop46
 90
       50
102
RTVSPost2010PropOp46
 70
     1
102
RTVSPost2010Prop47
 90
       50
102
RTVSPost2010PropOp47
 70
     1
102
RTVSPost2010Prop48
 90
       50
102
RTVSPost2010PropOp48
 70
     1
102
RTVSPost2010Prop49
280
     0
102
RTVSPost2010PropOp49
 70
     1
102
RTVSPost2010Prop50
 90
       50
102
RTVSPost2010PropOp50
 70
     1
102
RTVSPost2010Prop51ColorIndex
 90
      256
102
RTVSPost2010Prop51ColorRGB
 90
-16777216
102
RTVSPost2010PropOp51
 70
     0
102
RTVSPost2010Prop52
140
1.0
102
RTVSPost2010PropOp52
 70
     0
102
RTVSPost2010Prop53
 90
        2
102
RTVSPost2010PropOp53
 70
     1
102
RTVSPost2010Prop54
  1
strokes_ogs.tif
102
RTVSPost2010PropOp54
 70
     1
102
RTVSPost2010Prop55
280
     0
102
RTVSPost2010PropOp55
 70
     1
102
RTVSPost2010Prop56
140
1.0
102
RTVSPost2010PropOp56
 70
     1
102
RTVSPost2010Prop57
140
1.0
102
RTVSPost2010PropOp57
 70
     1
  0
XRECORD
  5
29C
102
{ACAD_REACTORS
330
29B
102
}
330
29B
100
AcDbXrecord
280
     1
102
RTVSPost2010Prop28
280
     0
102
RTVSPost2010PropOp28
 70
     1
102
RTVSPost2010Prop29
280
     1
102
RTVSPost2010PropOp29
 70
     1
102
RTVSPost2010Prop30
280
     1
102
RTVSPost2010PropOp30
 70
     1
102
RTVSPost2010Prop31
280
     0
102
RTVSPost2010PropOp31
 70
     1
102
RTVSPost2010Prop32
280
     0
102
RTVSPost2010PropOp32
 70
     1
102
RTVSPost2010Prop33
280
     0
102
RTVSPost2010PropOp33
 70
     1
102
RTVSPost2010Prop34
280
     0
102
RTVSPost2010PropOp34
 70
     1
102
RTVSPost2010Prop35
280
     0
102
RTVSPost2010PropOp35
 70
     1
102
RTVSPost2010Prop36
280
     0
102
RTVSPost2010PropOp36
 70
     1
102
RTVSPost2010Prop37
 90
       50
102
RTVSPost2010PropOp37
 70
     1
102
RTVSPost2010Prop38
140
0.0
102
RTVSPost2010PropOp38
 70
     1
102
RTVSPost2010Prop39
140
1.0
102
RTVSPost2010PropOp39
 70
     1
102
RTVSPost2010Prop40
 90
        0
102
RTVSPost2010PropOp40
 70
     1
102
RTVSPost2010Prop41ColorIndex
 90
       18
102
RTVSPost2010Prop41ColorRGB
 90
        0
102
RTVSPost2010PropOp41
 70
     1
102
RTVSPost2010Prop42
 90
       50
102
RTVSPost2010PropOp42
 70
     1
102
RTVSPost2010Prop43
 90
        3
102
RTVSPost2010PropOp43
 70
     1
102
RTVSPost2010Prop44ColorIndex
 90
        5
102
RTVSPost2010Prop44ColorRGB
 90
      255
102
RTVSPost2010PropOp44
 70
     1
102
RTVSPost2010Prop45
280
     0
102
RTVSPost2010PropOp45
 70
     1
102
RTVSPost2010Prop46
 90
       50
102
RTVSPost2010PropOp46
 70
     1
102
RTVSPost2010Prop47
 90
       50
102
RTVSPost2010PropOp47
 70
     1
102
RTVSPost2010Prop48
 90
       50
102
RTVSPost2010PropOp48
 70
     1
102
RTVSPost2010Prop49
280
     0
102
RTVSPost2010PropOp49
 70
     1
102
RTVSPost2010Prop50
 90
       50
102
RTVSPost2010PropOp50
 70
     1
102
RTVSPost2010Prop51ColorIndex
 90
      256
102
RTVSPost2010Prop51ColorRGB
 90
-16777216
102
RTVSPost2010PropOp51
 70
     0
102
RTVSPost2010Prop52
140
1.0
102
RTVSPost2010PropOp52
 70
     0
102
RTVSPost2010Prop53
 90
        2
102
RTVSPost2010PropOp53
 70
     1
102
RTVSPost2010Prop54
  1
strokes_ogs.tif
102
RTVSPost2010PropOp54
 70
     1
102
RTVSPost2010Prop55
280
     0
102
RTVSPost2010PropOp55
 70
     1
102
RTVSPost2010Prop56
140
1.0
102
RTVSPost2010PropOp56
 70
     1
102
RTVSPost2010Prop57
140
1.0
102
RTVSPost2010PropOp57
 70
     1
  0
XRECORD
  5
2BC
102
{ACAD_REACTORS
330
2BB
102
}
330
2BB
100
AcDbXrecord
280
     1
102
RTVSPost2010Prop28
280
     0
102
RTVSPost2010PropOp28
 70
     1
102
RTVSPost2010Prop29
280
     1
102
RTVSPost2010PropOp29
 70
     1
102
RTVSPost2010Prop30
280
     1
102
RTVSPost2010PropOp30
 70
     1
102
RTVSPost2010Prop31
280
     0
102
RTVSPost2010PropOp31
 70
     1
102
RTVSPost2010Prop32
280
     0
102
RTVSPost2010PropOp32
 70
     1
102
RTVSPost2010Prop33
280
     0
102
RTVSPost2010PropOp33
 70
     1
102
RTVSPost2010Prop34
280
     0
102
RTVSPost2010PropOp34
 70
     1
102
RTVSPost2010Prop35
280
     0
102
RTVSPost2010PropOp35
 70
     1
102
RTVSPost2010Prop36
280
     0
102
RTVSPost2010PropOp36
 70
     1
102
RTVSPost2010Prop37
 90
       50
102
RTVSPost2010PropOp37
 70
     1
102
RTVSPost2010Prop38
140
0.0
102
RTVSPost2010PropOp38
 70
     1
102
RTVSPost2010Prop39
140
1.0
102
RTVSPost2010PropOp39
 70
     1
102
RTVSPost2010Prop40
 90
        0
102
RTVSPost2010PropOp40
 70
     1
102
RTVSPost2010Prop41ColorIndex
 90
       18
102
RTVSPost2010Prop41ColorRGB
 90
        0
102
RTVSPost2010PropOp41
 70
     1
102
RTVSPost2010Prop42
 90
       50
102
RTVSPost2010PropOp42
 70
     1
102
RTVSPost2010Prop43
 90
        3
102
RTVSPost2010PropOp43
 70
     1
102
RTVSPost2010Prop44ColorIndex
 90
        5
102
RTVSPost2010Prop44ColorRGB
 90
      255
102
RTVSPost2010PropOp44
 70
     1
102
RTVSPost2010Prop45
280
     0
102
RTVSPost2010PropOp45
 70
     1
102
RTVSPost2010Prop46
 90
       50
102
RTVSPost2010PropOp46
 70
     1
102
RTVSPost2010Prop47
 90
       50
102
RTVSPost2010PropOp47
 70
     1
102
RTVSPost2010Prop48
 90
       50
102
RTVSPost2010PropOp48
 70
     1
102
RTVSPost2010Prop49
280
     0
102
RTVSPost2010PropOp49
 70
     1
102
RTVSPost2010Prop50
 90
       50
102
RTVSPost2010PropOp50
 70
     1
102
RTVSPost2010Prop51ColorIndex
 90
      256
102
RTVSPost2010Prop51ColorRGB
 90
-16777216
102
RTVSPost2010PropOp51
 70
     0
102
RTVSPost2010Prop52
140
1.0
102
RTVSPost2010PropOp52
 70
     0
102
RTVSPost2010Prop53
 90
        2
102
RTVSPost2010PropOp53
 70
     1
102
RTVSPost2010Prop54
  1
strokes_ogs.tif
102
RTVSPost2010PropOp54
 70
     1
102
RTVSPost2010Prop55
280
     0
102
RTVSPost2010PropOp55
 70
     1
102
RTVSPost2010Prop56
140
1.0
102
RTVSPost2010PropOp56
 70
     1
102
RTVSPost2010Prop57
140
1.0
102
RTVSPost2010PropOp57
 70
     1
  0
ENDSEC
  0
EOF
