  0
SECTION
  2
HEADER
  9
$ACADVER
  1
AC1024
  9
$ACADMAINTVER
 70
     6
  9
$DWGCODEPAGE
  3
ANSI_1252
  9
$LASTSAVEDBY
  1
juandavid.murillo
  9
$INSBASE
 10
0.0
 20
0.0
 30
0.0
  9
$EXTMIN
 10
-0.5
 20
-0.5
 30
-0.5
  9
$EXTMAX
 10
5.0
 20
5.0
 30
5.0
  9
$LIMMIN
 10
-0.5
 20
-0.5
  9
$LIMMAX
 10
5.0
 20
5.0
  9
$ORTHOMODE
 70
     0
  9
$REGENMODE
 70
     1
  9
$FILLMODE
 70
     1
  9
$QTEXTMODE
 70
     0
  9
$MIRRTEXT
 70
     1
  9
$LTSCALE
 40
1.0
  9
$ATTMODE
 70
     1
  9
$TEXTSIZE
 40
0.2
  9
$TRACEWID
 40
0.05
  9
$TEXTSTYLE
  7
Standard
  9
$CLAYER
  8
0
  9
$CELTYPE
  6
ByLayer
  9
$CECOLOR
 62
   256
  9
$CELTSCALE
 40
1.0
  9
$DISPSILH
 70
     0
  9
$DIMSCALE
 40
1.0
  9
$DIMASZ
 40
0.18
  9
$DIMEXO
 40
0.0625
  9
$DIMDLI
 40
0.38
  9
$DIMRND
 40
0.0
  9
$DIMDLE
 40
0.0
  9
$DIMEXE
 40
0.18
  9
$DIMTP
 40
0.0
  9
$DIMTM
 40
0.0
  9
$DIMTXT
 40
0.18
  9
$DIMCEN
 40
0.09
  9
$DIMTSZ
 40
0.0
  9
$DIMTOL
 70
     0
  9
$DIMLIM
 70
     0
  9
$DIMTIH
 70
     1
  9
$DIMTOH
 70
     1
  9
$DIMSE1
 70
     0
  9
$DIMSE2
 70
     0
  9
$DIMTAD
 70
     0
  9
$DIMZIN
 70
     0
  9
$DIMBLK
  1

  9
$DIMASO
 70
     1
  9
$DIMSHO
 70
     1
  9
$DIMPOST
  1

  9
$DIMAPOST
  1

  9
$DIMALT
 70
     0
  9
$DIMALTD
 70
     2
  9
$DIMALTF
 40
25.4
  9
$DIMLFAC
 40
1.0
  9
$DIMTOFL
 70
     0
  9
$DIMTVP
 40
0.0
  9
$DIMTIX
 70
     0
  9
$DIMSOXD
 70
     0
  9
$DIMSAH
 70
     0
  9
$DIMBLK1
  1

  9
$DIMBLK2
  1

  9
$DIMSTYLE
  2
Standard
  9
$DIMCLRD
 70
     0
  9
$DIMCLRE
 70
     0
  9
$DIMCLRT
 70
     0
  9
$DIMTFAC
 40
1.0
  9
$DIMGAP
 40
0.09
  9
$DIMJUST
 70
     0
  9
$DIMSD1
 70
     0
  9
$DIMSD2
 70
     0
  9
$DIMTOLJ
 70
     1
  9
$DIMTZIN
 70
     0
  9
$DIMALTZ
 70
     0
  9
$DIMALTTZ
 70
     0
  9
$DIMUPT
 70
     0
  9
$DIMDEC
 70
     4
  9
$DIMTDEC
 70
     4
  9
$DIMALTU
 70
     2
  9
$DIMALTTD
 70
     2
  9
$DIMTXSTY
  7
Standard
  9
$DIMAUNIT
 70
     0
  9
$DIMADEC
 70
     0
  9
$DIMALTRND
 40
0.0
  9
$DIMAZIN
 70
     0
  9
$DIMDSEP
 70
    46
  9
$DIMATFIT
 70
     3
  9
$DIMFRAC
 70
     0
  9
$DIMLDRBLK
  1

  9
$DIMLUNIT
 70
     2
  9
$DIMLWD
 70
    -2
  9
$DIMLWE
 70
    -2
  9
$DIMTMOVE
 70
     0
  9
$DIMFXL
 40
1.0
  9
$DIMFXLON
 70
     0
  9
$DIMJOGANG
 40
0.785398
  9
$DIMTFILL
 70
     0
  9
$DIMTFILLCLR
 70
     0
  9
$DIMARCSYM
 70
     0
  9
$DIMLTYPE
  6

  9
$DIMLTEX1
  6

  9
$DIMLTEX2
  6

  9
$DIMTXTDIRECTION
 70
     0
  9
$LUNITS
 70
     2
  9
$LUPREC
 70
     4
  9
$SKETCHINC
 40
0.1
  9
$FILLETRAD
 40
0.0
  9
$AUNITS
 70
     0
  9
$AUPREC
 70
     0
  9
$MENU
  1
.
  9
$ELEVATION
 40
0.0
  9
$PELEVATION
 40
0.0
  9
$THICKNESS
 40
0.0
  9
$LIMCHECK
 70
     0
  9
$CHAMFERA
 40
0.0
  9
$CHAMFERB
 40
0.0
  9
$CHAMFERC
 40
0.0
  9
$CHAMFERD
 40
0.0
  9
$SKPOLY
 70
     0
  9
$TDCREATE
 40
2460824.400098345
  9
$TDUCREATE
 40
2460824.316765012
  9
$TDUPDATE
 40
2460824.400098982
  9
$TDUUPDATE
 40
2460824.316765649
  9
$TDINDWG
 40
0.0000000116
  9
$TDUSRTIMER
 40
0.0000000116
  9
$USRTIMER
 70
     1
  9
$ANGBASE
 50
0.0
  9
$ANGDIR
 70
     0
  9
$PDMODE
 70
     0
  9
$PDSIZE
 40
0.0
  9
$PLINEWID
 40
0.0
  9
$SPLFRAME
 70
     0
  9
$SPLINETYPE
 70
     6
  9
$SPLINESEGS
 70
     8
  9
$HANDSEED
  5
2DF
  9
$SURFTAB1
 70
     6
  9
$SURFTAB2
 70
     6
  9
$SURFTYPE
 70
     6
  9
$SURFU
 70
     6
  9
$SURFV
 70
     6
  9
$UCSBASE
  2

  9
$UCSNAME
  2

  9
$UCSORG
 10
0.0
 20
0.0
 30
0.0
  9
$UCSXDIR
 10
1.0
 20
0.0
 30
0.0
  9
$UCSYDIR
 10
0.0
 20
1.0
 30
0.0
  9
$UCSORTHOREF
  2

  9
$UCSORTHOVIEW
 70
     0
  9
$UCSORGTOP
 10
0.0
 20
0.0
 30
0.0
  9
$UCSORGBOTTOM
 10
0.0
 20
0.0
 30
0.0
  9
$UCSORGLEFT
 10
0.0
 20
0.0
 30
0.0
  9
$UCSORGRIGHT
 10
0.0
 20
0.0
 30
0.0
  9
$UCSORGFRONT
 10
0.0
 20
0.0
 30
0.0
  9
$UCSORGBACK
 10
0.0
 20
0.0
 30
0.0
  9
$PUCSBASE
  2

  9
$PUCSNAME
  2

  9
$PUCSORG
 10
0.0
 20
0.0
 30
0.0
  9
$PUCSXDIR
 10
1.0
 20
0.0
 30
0.0
  9
$PUCSYDIR
 10
0.0
 20
1.0
 30
0.0
  9
$PUCSORTHOREF
  2

  9
$PUCSORTHOVIEW
 70
     0
  9
$PUCSORGTOP
 10
0.0
 20
0.0
 30
0.0
  9
$PUCSORGBOTTOM
 10
0.0
 20
0.0
 30
0.0
  9
$PUCSORGLEFT
 10
0.0
 20
0.0
 30
0.0
  9
$PUCSORGRIGHT
 10
0.0
 20
0.0
 30
0.0
  9
$PUCSORGFRONT
 10
0.0
 20
0.0
 30
0.0
  9
$PUCSORGBACK
 10
0.0
 20
0.0
 30
0.0
  9
$USERI1
 70
     0
  9
$USERI2
 70
     0
  9
$USERI3
 70
     0
  9
$USERI4
 70
     0
  9
$USERI5
 70
     0
  9
$USERR1
 40
0.0
  9
$USERR2
 40
0.0
  9
$USERR3
 40
0.0
  9
$USERR4
 40
0.0
  9
$USERR5
 40
0.0
  9
$WORLDVIEW
 70
     1
  9
$SHADEDGE
 70
     3
  9
$SHADEDIF
 70
    70
  9
$TILEMODE
 70
     1
  9
$MAXACTVP
 70
    64
  9
$PINSBASE
 10
0.0
 20
0.0
 30
0.0
  9
$PLIMCHECK
 70
     0
  9
$PEXTMIN
 10
-0.5
 20
-0.5
 30
-0.5
  9
$PEXTMAX
 10
5.0
 20
5.0
 30
5.0
  9
$PLIMMIN
 10
-0.5
 20
-0.5
  9
$PLIMMAX
 10
5.0
 20
5.0
  9
$UNITMODE
 70
     0
  9
$VISRETAIN
 70
     1
  9
$PLINEGEN
 70
     0
  9
$PSLTSCALE
 70
     1
  9
$TREEDEPTH
 70
  3020
  9
$CMLSTYLE
  2
Standard
  9
$CMLJUST
 70
     0
  9
$CMLSCALE
 40
1.0
  9
$PROXYGRAPHICS
 70
     1
  9
$MEASUREMENT
 70
     1
  9
$CELWEIGHT
370
    -1
  9
$ENDCAPS
280
     0
  9
$JOINSTYLE
280
     0
  9
$LWDISPLAY
290
     0
  9
$INSUNITS
 70
     4
  9
$HYPERLINKBASE
  1

  9
$STYLESHEET
  1

  9
$XEDIT
290
     1
  9
$CEPSNTYPE
380
     0
  9
$PSTYLEMODE
290
     1
  9
$FINGERPRINTGUID
  2
{7c626d70-43c8-4eb2-a968-7cadfc55c86a}
  9
$VERSIONGUID
  2
{FAEB1C32-E019-11D5-929B-00C0DF256EC4}
  9
$EXTNAMES
290
     1
  9
$PSVPSCALE
 40
0.0
  9
$OLESTARTUP
290
     0
  9
$SORTENTS
280
   127
  9
$INDEXCTL
280
     0
  9
$HIDETEXT
280
     1
  9
$XCLIPFRAME
280
     2
  9
$HALOGAP
280
     0
  9
$OBSCOLOR
 70
   257
  9
$OBSLTYPE
280
     0
  9
$INTERSECTIONDISPLAY
280
     0
  9
$INTERSECTIONCOLOR
 70
   257
  9
$DIMASSOC
280
     2
  9
$PROJECTNAME
  1

  9
$CAMERADISPLAY
290
     0
  9
$LENSLENGTH
 40
50.0
  9
$CAMERAHEIGHT
 40
0.0
  9
$STEPSPERSEC
 40
2.0
  9
$STEPSIZE
 40
6.0
  9
$3DDWFPREC
 40
2.0
  9
$PSOLWIDTH
 40
0.25
  9
$PSOLHEIGHT
 40
4.0
  9
$LOFTANG1
 40
1.570796
  9
$LOFTANG2
 40
1.570796
  9
$LOFTMAG1
 40
0.0
  9
$LOFTMAG2
 40
0.0
  9
$LOFTPARAM
 70
     7
  9
$LOFTNORMALS
280
     1
  9
$LATITUDE
 40
37.795
  9
$LONGITUDE
 40
-122.394
  9
$NORTHDIRECTION
 40
0.0
  9
$TIMEZONE
 70
 -8000
  9
$LIGHTGLYPHDISPLAY
280
     1
  9
$TILEMODELIGHTSYNCH
280
     1
  9
$CMATERIAL
347
44
  9
$SOLIDHIST
280
     0
  9
$SHOWHIST
280
     1
  9
$DWFFRAME
280
     2
  9
$DGNFRAME
280
     2
  9
$REALWORLDSCALE
290
     1
  9
$INTERFERECOLOR
 62
   256
  9
$CSHADOW
280
     0
  9
$SHADOWPLANELOCATION
 40
0.0
  0
ENDSEC
  0
SECTION
  2
CLASSES
  0
CLASS
  1
ACDBDICTIONARYWDFLT
  2
AcDbDictionaryWithDefault
  3
ObjectDBX Classes
 90
        0
 91
        3
280
     0
281
     0
  0
CLASS
  1
VISUALSTYLE
  2
AcDbVisualStyle
  3
ObjectDBX Classes
 90
     4095
 91
        3
280
     0
281
     0
  0
CLASS
  1
MATERIAL
  2
AcDbMaterial
  3
ObjectDBX Classes
 90
     1153
 91
        3
280
     0
281
     0
  0
CLASS
  1
SCALE
  2
AcDbScale
  3
ObjectDBX Classes
 90
     1153
 91
        3
280
     0
281
     0
  0
CLASS
  1
TABLESTYLE
  2
AcDbTableStyle
  3
ObjectDBX Classes
 90
     4095
 91
        3
280
     0
281
     0
  0
CLASS
  1
MLEADERSTYLE
  2
AcDbMLeaderStyle
  3
ACDB_MLEADERSTYLE_CLASS
 90
     4095
 91
        3
280
     0
281
     0
  0
CLASS
  1
SUN
  2
AcDbSun
  3
SCENEOE
 90
     1153
 91
        3
280
     0
281
     0
  0
CLASS
  1
RASTERVARIABLES
  2
AcDbRasterVariables
  3
ISM
 90
        0
 91
        3
280
     0
281
     0
  0
CLASS
  1
DICTIONARYVAR
  2
AcDbDictionaryVar
  3
ObjectDBX Classes
 90
        0
 91
        3
280
     0
281
     0
  0
CLASS
  1
CELLSTYLEMAP
  2
AcDbCellStyleMap
  3
ObjectDBX Classes
 90
     1152
 91
        3
280
     0
281
     0
  0
ENDSEC
  0
SECTION
  2
TABLES
  0
TABLE
  2
VPORT
  5
8
330
0
100
AcDbSymbolTable
 70
    16
  0
VPORT
  5
29
330
8
100
AcDbSymbolTableRecord
100
AcDbViewportTableRecord
  2
*Active
 70
     0
 10
0.0
 20
0.0
 11
1.0
 21
1.0
 12
0.0
 22
0.0
 13
0.0
 23
0.0
 14
0.5
 24
0.5
 15
0.5
 25
0.5
 16
0.0
 26
0.0
 36
1.0
 17
0.0
 27
0.0
 37
0.0
 40
298.714583
 41
0.059444
 42
50.0
 43
978.594526
 44
-978.594526
 50
0.0
 51
0.0
 71
     0
 72
   100
 73
     1
 74
     3
 75
     0
 76
     0
 77
     0
 78
     0
281
     0
 65
     1
110
0.0
120
0.0
130
0.0
111
1.0
121
0.0
131
0.0
112
0.0
122
1.0
132
0.0
 79
     0
146
0.0
348
2F
 60
     3
 61
     5
292
     1
282
     1
141
0.0
142
0.0
 63
   250
361
5D
  0
VPORT
  5
297
330
8
100
AcDbSymbolTableRecord
100
AcDbViewportTableRecord
  2
L1
 70
     0
 10
0.0
 20
0.0
 11
1.0
 21
1.0
 12
0.0
 22
0.0
 13
0.0
 23
0.0
 14
0.5
 24
0.5
 15
0.5
 25
0.5
 16
0.0
 26
0.0
 36
1.0
 17
0.0
 27
0.0
 37
0.0
 40
298.714583
 41
0.059444
 42
50.0
 43
978.594526
 44
-978.594526
 50
0.0
 51
0.0
 71
     0
 72
   100
 73
     1
 74
     3
 75
     0
 76
     0
 77
     0
 78
     0
281
     0
 65
     1
110
0.0
120
0.0
130
0.0
111
1.0
121
0.0
131
0.0
112
0.0
122
1.0
132
0.0
 79
     0
146
0.0
348
2F
 60
     3
 61
     5
292
     1
282
     1
141
0.0
142
0.0
 63
   256
  0
VPORT
  5
298
330
8
100
AcDbSymbolTableRecord
100
AcDbViewportTableRecord
  2
L2
 70
     0
 10
0.0
 20
0.0
 11
0.5
 21
1.0
 12
0.0
 22
0.0
 13
0.0
 23
0.0
 14
0.5
 24
0.5
 15
0.5
 25
0.5
 16
0.0
 26
-1.0
 36
0.0
 17
0.0
 27
0.0
 37
0.0
 40
1957.189052
 41
0.009073
 42
50.0
 43
1009.671875
 44
-1009.671875
 50
0.0
 51
0.0
 71
     0
 72
   100
 73
     1
 74
     3
 75
     0
 76
     0
 77
     0
 78
     0
281
     0
 65
     1
110
0.0
120
0.0
130
0.0
111
1.0
121
0.0
131
0.0
112
0.0
122
1.0
132
0.0
 79
     0
146
0.0
348
2F
 60
     3
 61
     5
292
     1
282
     1
141
0.0
142
0.0
 63
   256
  0
VPORT
  5
299
330
8
100
AcDbSymbolTableRecord
100
AcDbViewportTableRecord
  2
L2
 70
     0
 10
0.5
 20
0.0
 11
1.0
 21
1.0
 12
0.0
 22
0.0
 13
0.0
 23
0.0
 14
0.5
 24
0.5
 15
0.5
 25
0.5
 16
1.0
 26
0.0
 36
0.0
 17
0.0
 27
0.0
 37
0.0
 40
1957.189052
 41
0.009073
 42
50.0
 43
989.926688
 44
-989.926688
 50
0.0
 51
0.0
 71
     0
 72
   100
 73
     1
 74
     3
 75
     0
 76
     0
 77
     0
 78
     0
281
     0
 65
     1
110
0.0
120
0.0
130
0.0
111
1.0
121
0.0
131
0.0
112
0.0
122
1.0
132
0.0
 79
     0
146
0.0
348
2F
 60
     3
 61
     5
292
     1
282
     1
141
0.0
142
0.0
 63
   256
  0
VPORT
  5
29A
330
8
100
AcDbSymbolTableRecord
100
AcDbViewportTableRecord
  2
L3
 70
     0
 10
0.0
 20
0.5
 11
1.0
 21
1.0
 12
0.0
 22
0.0
 13
0.0
 23
0.0
 14
0.5
 24
0.5
 15
0.5
 25
0.5
 16
0.0
 26
0.0
 36
1.0
 17
0.0
 27
0.0
 37
0.0
 40
298.714583
 41
0.059444
 42
50.0
 43
978.594526
 44
-978.594526
 50
0.0
 51
0.0
 71
     0
 72
   100
 73
     1
 74
     3
 75
     0
 76
     0
 77
     0
 78
     0
281
     0
 65
     1
110
0.0
120
0.0
130
0.0
111
1.0
121
0.0
131
0.0
112
0.0
122
1.0
132
0.0
 79
     0
146
0.0
348
2F
 60
     3
 61
     5
292
     1
282
     1
141
0.0
142
0.0
 63
   256
  0
VPORT
  5
29B
330
8
100
AcDbSymbolTableRecord
100
AcDbViewportTableRecord
  2
L3
 70
     0
 10
0.0
 20
0.0
 11
1.0
 21
0.5
 12
0.0
 22
0.0
 13
0.0
 23
0.0
 14
0.5
 24
0.5
 15
0.5
 25
0.5
 16
0.0
 26
-1.0
 36
0.0
 17
0.0
 27
0.0
 37
0.0
 40
1957.189052
 41
0.009073
 42
50.0
 43
1009.671875
 44
-1009.671875
 50
0.0
 51
0.0
 71
     0
 72
   100
 73
     1
 74
     3
 75
     0
 76
     0
 77
     0
 78
     0
281
     0
 65
     1
110
0.0
120
0.0
130
0.0
111
1.0
121
0.0
131
0.0
112
0.0
122
1.0
132
0.0
 79
     0
146
0.0
348
2F
 60
     3
 61
     5
292
     1
282
     1
141
0.0
142
0.0
 63
   256
  0
VPORT
  5
29C
330
8
100
AcDbSymbolTableRecord
100
AcDbViewportTableRecord
  2
L4
 70
     0
 10
0.0
 20
0.5
 11
0.5
 21
1.0
 12
0.0
 22
0.0
 13
0.0
 23
0.0
 14
0.5
 24
0.5
 15
0.5
 25
0.5
 16
0.0
 26
0.0
 36
1.0
 17
0.0
 27
0.0
 37
0.0
 40
298.714583
 41
0.059444
 42
50.0
 43
978.594526
 44
-978.594526
 50
0.0
 51
0.0
 71
     0
 72
   100
 73
     1
 74
     3
 75
     0
 76
     0
 77
     0
 78
     0
281
     0
 65
     1
110
0.0
120
0.0
130
0.0
111
1.0
121
0.0
131
0.0
112
0.0
122
1.0
132
0.0
 79
     0
146
0.0
348
2F
 60
     3
 61
     5
292
     1
282
     1
141
0.0
142
0.0
 63
   256
  0
VPORT
  5
29D
330
8
100
AcDbSymbolTableRecord
100
AcDbViewportTableRecord
  2
L4
 70
     0
 10
0.0
 20
0.0
 11
0.5
 21
0.5
 12
0.0
 22
0.0
 13
0.0
 23
0.0
 14
0.5
 24
0.5
 15
0.5
 25
0.5
 16
0.0
 26
-1.0
 36
0.0
 17
0.0
 27
0.0
 37
0.0
 40
1957.189052
 41
0.009073
 42
50.0
 43
1009.671875
 44
-1009.671875
 50
0.0
 51
0.0
 71
     0
 72
   100
 73
     1
 74
     3
 75
     0
 76
     0
 77
     0
 78
     0
281
     0
 65
     1
110
0.0
120
0.0
130
0.0
111
1.0
121
0.0
131
0.0
112
0.0
122
1.0
132
0.0
 79
     0
146
0.0
348
2F
 60
     3
 61
     5
292
     1
282
     1
141
0.0
142
0.0
 63
   256
  0
VPORT
  5
29E
330
8
100
AcDbSymbolTableRecord
100
AcDbViewportTableRecord
  2
L4
 70
     0
 10
0.5
 20
0.0
 11
1.0
 21
0.5
 12
0.0
 22
0.0
 13
0.0
 23
0.0
 14
0.5
 24
0.5
 15
0.5
 25
0.5
 16
1.0
 26
0.0
 36
0.0
 17
0.0
 27
0.0
 37
0.0
 40
1957.189052
 41
0.009073
 42
50.0
 43
989.926688
 44
-989.926688
 50
0.0
 51
0.0
 71
     0
 72
   100
 73
     1
 74
     3
 75
     0
 76
     0
 77
     0
 78
     0
281
     0
 65
     1
110
0.0
120
0.0
130
0.0
111
1.0
121
0.0
131
0.0
112
0.0
122
1.0
132
0.0
 79
     0
146
0.0
348
2F
 60
     3
 61
     5
292
     1
282
     1
141
0.0
142
0.0
 63
   256
  0
VPORT
  5
29F
330
8
100
AcDbSymbolTableRecord
100
AcDbViewportTableRecord
  2
L4
 70
     0
 10
0.5
 20
0.5
 11
1.0
 21
1.0
 12
0.0
 22
0.0
 13
0.0
 23
0.0
 14
0.5
 24
0.5
 15
0.5
 25
0.5
 16
0.5773502691896258
 26
-0.5773502691896258
 36
0.5773502691896258
 17
0.0
 27
0.0
 37
0.0
 40
1922.949376
 41
0.009234
 42
50.0
 43
1001.802897
 44
-1001.802897
 50
0.0
 51
0.0
 71
     0
 72
   100
 73
     1
 74
     3
 75
     0
 76
     0
 77
     0
 78
     0
281
     0
 65
     1
110
0.0
120
0.0
130
0.0
111
1.0
121
0.0
131
0.0
112
0.0
122
1.0
132
0.0
 79
     0
146
0.0
348
2F
 60
     3
 61
     5
292
     1
282
     1
141
0.0
142
0.0
 63
   256
  0
VPORT
  5
2A0
330
8
100
AcDbSymbolTableRecord
100
AcDbViewportTableRecord
  2
L6
 70
     0
 10
0.0
 20
0.5
 11
0.333333
 21
1.0
 12
0.0
 22
0.0
 13
0.0
 23
0.0
 14
0.5
 24
0.5
 15
0.5
 25
0.5
 16
0.7188730927569433
 26
-0.5850486126764433
 36
0.3754192287502549
 17
0.0
 27
0.0
 37
0.0
 40
2029.5768
 41
0.008749
 42
50.0
 43
1050.803047
 44
-1050.803047
 50
0.0
 51
0.0
 71
     0
 72
   100
 73
     1
 74
     3
 75
     0
 76
     0
 77
     0
 78
     0
281
     0
 65
     1
110
0.0
120
0.0
130
0.0
111
1.0
121
0.0
131
0.0
112
0.0
122
1.0
132
0.0
 79
     0
146
0.0
348
2F
 60
     3
 61
     5
292
     1
282
     1
141
0.0
142
0.0
 63
   256
  0
VPORT
  5
2A1
330
8
100
AcDbSymbolTableRecord
100
AcDbViewportTableRecord
  2
L6
 70
     0
 10
0.0
 20
0.0
 11
0.333333
 21
0.5
 12
0.0
 22
0.0
 13
0.0
 23
0.0
 14
0.5
 24
0.5
 15
0.5
 25
0.5
 16
-1.0
 26
0.0
 36
0.0
 17
0.0
 27
0.0
 37
0.0
 40
1957.189052
 41
0.009073
 42
50.0
 43
989.926688
 44
-989.926688
 50
0.0
 51
0.0
 71
     0
 72
   100
 73
     1
 74
     3
 75
     0
 76
     0
 77
     0
 78
     0
281
     0
 65
     1
110
0.0
120
0.0
130
0.0
111
1.0
121
0.0
131
0.0
112
0.0
122
1.0
132
0.0
 79
     0
146
0.0
348
2F
 60
     3
 61
     5
292
     1
282
     1
141
0.0
142
0.0
 63
   256
  0
VPORT
  5
2A2
330
8
100
AcDbSymbolTableRecord
100
AcDbViewportTableRecord
  2
L6
 70
     0
 10
0.333333
 20
0.5
 11
0.666667
 21
1.0
 12
0.0
 22
0.0
 13
0.0
 23
0.0
 14
0.5
 24
0.5
 15
0.5
 25
0.5
 16
0.0
 26
0.0
 36
1.0
 17
0.0
 27
0.0
 37
0.0
 40
298.714583
 41
0.059444
 42
50.0
 43
978.594526
 44
-978.594526
 50
0.0
 51
0.0
 71
     0
 72
   100
 73
     1
 74
     3
 75
     0
 76
     0
 77
     0
 78
     0
281
     0
 65
     1
110
0.0
120
0.0
130
0.0
111
1.0
121
0.0
131
0.0
112
0.0
122
1.0
132
0.0
 79
     0
146
0.0
348
2F
 60
     3
 61
     5
292
     1
282
     1
141
0.0
142
0.0
 63
   256
  0
VPORT
  5
2A3
330
8
100
AcDbSymbolTableRecord
100
AcDbViewportTableRecord
  2
L6
 70
     0
 10
0.333333
 20
0.0
 11
0.666667
 21
0.5
 12
0.0
 22
0.0
 13
0.0
 23
0.0
 14
0.5
 24
0.5
 15
0.5
 25
0.5
 16
0.0
 26
-1.0
 36
0.0
 17
0.0
 27
0.0
 37
0.0
 40
1957.189052
 41
0.009073
 42
50.0
 43
1009.671875
 44
-1009.671875
 50
0.0
 51
0.0
 71
     0
 72
   100
 73
     1
 74
     3
 75
     0
 76
     0
 77
     0
 78
     0
281
     0
 65
     1
110
0.0
120
0.0
130
0.0
111
1.0
121
0.0
131
0.0
112
0.0
122
1.0
132
0.0
 79
     0
146
0.0
348
2F
 60
     3
 61
     5
292
     1
282
     1
141
0.0
142
0.0
 63
   256
  0
VPORT
  5
2A4
330
8
100
AcDbSymbolTableRecord
100
AcDbViewportTableRecord
  2
L6
 70
     0
 10
0.666667
 20
0.5
 11
1.0
 21
1.0
 12
0.0
 22
0.0
 13
0.0
 23
0.0
 14
0.5
 24
0.5
 15
0.5
 25
0.5
 16
0.5773502691896258
 26
-0.5773502691896258
 36
0.5773502691896258
 17
0.0
 27
0.0
 37
0.0
 40
1922.949376
 41
0.009234
 42
50.0
 43
1001.802897
 44
-1001.802897
 50
0.0
 51
0.0
 71
     0
 72
   100
 73
     1
 74
     3
 75
     0
 76
     0
 77
     0
 78
     0
281
     0
 65
     1
110
0.0
120
0.0
130
0.0
111
1.0
121
0.0
131
0.0
112
0.0
122
1.0
132
0.0
 79
     0
146
0.0
348
2F
 60
     3
 61
     5
292
     1
282
     1
141
0.0
142
0.0
 63
   256
  0
VPORT
  5
2A5
330
8
100
AcDbSymbolTableRecord
100
AcDbViewportTableRecord
  2
L6
 70
     0
 10
0.666667
 20
0.0
 11
1.0
 21
0.5
 12
0.0
 22
0.0
 13
0.0
 23
0.0
 14
0.5
 24
0.5
 15
0.5
 25
0.5
 16
1.0
 26
0.0
 36
0.0
 17
0.0
 27
0.0
 37
0.0
 40
1957.189052
 41
0.009073
 42
50.0
 43
989.926688
 44
-989.926688
 50
0.0
 51
0.0
 71
     0
 72
   100
 73
     1
 74
     3
 75
     0
 76
     0
 77
     0
 78
     0
281
     0
 65
     1
110
0.0
120
0.0
130
0.0
111
1.0
121
0.0
131
0.0
112
0.0
122
1.0
132
0.0
 79
     0
146
0.0
348
2F
 60
     3
 61
     5
292
     1
282
     1
141
0.0
142
0.0
 63
   256
  0
ENDTAB
  0
TABLE
  2
LTYPE
  5
5
330
0
100
AcDbSymbolTable
 70
    10
  0
LTYPE
  5
14
330
5
100
AcDbSymbolTableRecord
100
AcDbLinetypeTableRecord
  2
ByBlock
 70
     0
  3

 72
    65
 73
     0
 40
0.0
  0
LTYPE
  5
15
330
5
100
AcDbSymbolTableRecord
100
AcDbLinetypeTableRecord
  2
ByLayer
 70
     0
  3

 72
    65
 73
     0
 40
0.0
  0
LTYPE
  5
16
330
5
100
AcDbSymbolTableRecord
100
AcDbLinetypeTableRecord
  2
Continuous
 70
     0
  3
Solid line
 72
    65
 73
     0
 40
0.0
  0
LTYPE
  5
5F
330
5
100
AcDbSymbolTableRecord
100
AcDbLinetypeTableRecord
  2
ACAD_ISO04W100
 70
     0
  3
ISO long-dash dot ____ . ____ . ____ . ____ . _
 72
    65
 73
     4
 40
30.0
 49
24.0
 74
     4
 75
     0
340
0
 46
0.0
 50
0.0
 44
0.0
 45
0.0
 49
-3.0
 74
     4
 75
     0
340
0
 46
0.0
 50
0.0
 44
0.0
 45
0.0
 49
0.0
 74
     4
 75
     0
340
0
 46
0.0
 50
0.0
 44
0.0
 45
0.0
 49
-3.0
 74
     4
 75
     0
340
0
 46
0.0
 50
0.0
 44
0.0
 45
0.0
  0
LTYPE
  5
60
330
5
100
AcDbSymbolTableRecord
100
AcDbLinetypeTableRecord
  2
ACAD_ISO05W100
 70
     0
  3
ISO long-dash double-dot ____ .. ____ .. ____ . 
 72
    65
 73
     6
 40
33.0
 49
24.0
 74
     4
 75
     0
340
0
 46
0.0
 50
0.0
 44
0.0
 45
0.0
 49
-3.0
 74
     4
 75
     0
340
0
 46
0.0
 50
0.0
 44
0.0
 45
0.0
 49
0.0
 74
     4
 75
     0
340
0
 46
0.0
 50
0.0
 44
0.0
 45
0.0
 49
-3.0
 74
     4
 75
     0
340
0
 46
0.0
 50
0.0
 44
0.0
 45
0.0
 49
0.0
 74
     4
 75
     0
340
0
 46
0.0
 50
0.0
 44
0.0
 45
0.0
 49
-3.0
 74
     4
 75
     0
340
0
 46
0.0
 50
0.0
 44
0.0
 45
0.0
  0
LTYPE
  5
61
330
5
100
AcDbSymbolTableRecord
100
AcDbLinetypeTableRecord
  2
ACAD_ISO06W100
 70
     0
  3
ISO long-dash triple-dot ____ ... ____ ... ____
 72
    65
 73
     8
 40
36.0
 49
24.0
 74
     4
 75
     0
340
0
 46
0.0
 50
0.0
 44
0.0
 45
0.0
 49
-3.0
 74
     4
 75
     0
340
0
 46
0.0
 50
0.0
 44
0.0
 45
0.0
 49
0.0
 74
     4
 75
     0
340
0
 46
0.0
 50
0.0
 44
0.0
 45
0.0
 49
-3.0
 74
     4
 75
     0
340
0
 46
0.0
 50
0.0
 44
0.0
 45
0.0
 49
0.0
 74
     4
 75
     0
340
0
 46
0.0
 50
0.0
 44
0.0
 45
0.0
 49
-3.0
 74
     4
 75
     0
340
0
 46
0.0
 50
0.0
 44
0.0
 45
0.0
 49
0.0
 74
     4
 75
     0
340
0
 46
0.0
 50
0.0
 44
0.0
 45
0.0
 49
-3.0
 74
     4
 75
     0
340
0
 46
0.0
 50
0.0
 44
0.0
 45
0.0
  0
LTYPE
  5
62
330
5
100
AcDbSymbolTableRecord
100
AcDbLinetypeTableRecord
  2
ACAD_ISO09W100
 70
     0
  3
ISO long-dash double-short-dash ____ __ __ ____
 72
    65
 73
     6
 40
45.0
 49
24.0
 74
     4
 75
     0
340
0
 46
0.0
 50
0.0
 44
0.0
 45
0.0
 49
-3.0
 74
     4
 75
     0
340
0
 46
0.0
 50
0.0
 44
0.0
 45
0.0
 49
6.0
 74
     4
 75
     0
340
0
 46
0.0
 50
0.0
 44
0.0
 45
0.0
 49
-3.0
 74
     4
 75
     0
340
0
 46
0.0
 50
0.0
 44
0.0
 45
0.0
 49
6.0
 74
     4
 75
     0
340
0
 46
0.0
 50
0.0
 44
0.0
 45
0.0
 49
-3.0
 74
     4
 75
     0
340
0
 46
0.0
 50
0.0
 44
0.0
 45
0.0
  0
LTYPE
  5
63
330
5
100
AcDbSymbolTableRecord
100
AcDbLinetypeTableRecord
  2
CENTER
 70
     0
  3
____ _ ____ _ ____ _ ____
 72
    65
 73
     4
 40
47.4
 49
22.0
 74
     4
 75
     0
340
0
 46
0.0
 50
0.0
 44
0.0
 45
0.0
 49
-8.5
 74
     4
 75
     0
340
0
 46
0.0
 50
0.0
 44
0.0
 45
0.0
 49
8.5
 74
     4
 75
     0
340
0
 46
0.0
 50
0.0
 44
0.0
 45
0.0
 49
-8.5
 74
     4
 75
     0
340
0
 46
0.0
 50
0.0
 44
0.0
 45
0.0
  0
LTYPE
  5
64
330
5
100
AcDbSymbolTableRecord
100
AcDbLinetypeTableRecord
  2
DASHDOT
 70
     0
  3
_._._._._._._._._._._._._._._._.
 72
    65
 73
     4
 40
70.0
 49
31.0
 74
     4
 75
     0
340
0
 46
0.0
 50
0.0
 44
0.0
 45
0.0
 49
-13.0
 74
     4
 75
     0
340
0
 46
0.0
 50
0.0
 44
0.0
 45
0.0
 49
13.0
 74
     4
 75
     0
340
0
 46
0.0
 50
0.0
 44
0.0
 45
0.0
 49
-13.0
 74
     4
 75
     0
340
0
 46
0.0
 50
0.0
 44
0.0
 45
0.0
  0
LTYPE
  5
65
330
5
100
AcDbSymbolTableRecord
100
AcDbLinetypeTableRecord
  2
DASHED
 70
     0
  3
__ __ __ __ __ __ __ __ __
 72
    65
 73
     2
 40
25.72
 49
12.86
 74
     4
 75
     0
340
0
 46
0.0
 50
0.0
 44
0.0
 45
0.0
 49
-12.86
 74
     4
 75
     0
340
0
 46
0.0
 50
0.0
 44
0.0
 45
0.0
  0
LTYPE
  5
66
330
5
100
AcDbSymbolTableRecord
100
AcDbLinetypeTableRecord
  2
DOT
 70
     0
  3
.........................
 72
    65
 73
     2
 40
10.0
 49
0.0
 74
     4
 75
     0
340
0
 46
0.0
 50
0.0
 44
0.0
 45
0.0
 49
-10.0
 74
     4
 75
     0
340
0
 46
0.0
 50
0.0
 44
0.0
 45
0.0
  0
LTYPE
  5
67
330
5
100
AcDbSymbolTableRecord
100
AcDbLinetypeTableRecord
  2
PHANTOM
 70
     0
  3
____ _ _ ____ _ _ _____ _ _ ____
 72
    65
 73
     6
 40
50.5
 49
18.0
 74
     4
 75
     0
340
0
 46
0.0
 50
0.0
 44
0.0
 45
0.0
 49
-6.5
 74
     4
 75
     0
340
0
 46
0.0
 50
0.0
 44
0.0
 45
0.0
 49
6.5
 74
     4
 75
     0
340
0
 46
0.0
 50
0.0
 44
0.0
 45
0.0
 49
-6.5
 74
     4
 75
     0
340
0
 46
0.0
 50
0.0
 44
0.0
 45
0.0
 49
6.5
 74
     4
 75
     0
340
0
 46
0.0
 50
0.0
 44
0.0
 45
0.0
 49
-6.5
 74
     4
 75
     0
340
0
 46
0.0
 50
0.0
 44
0.0
 45
0.0
  0
ENDTAB
  0
TABLE
  2
LAYER
  5
2
330
0
100
AcDbSymbolTable
 70
     2
  0
LAYER
  5
10
330
2
100
AcDbSymbolTableRecord
100
AcDbLayerTableRecord
  2
0
 70
     0
 62
     7
  6
Continuous
370
    -3
390
F
347
46
  0
LAYER
  5
69
330
2
100
AcDbSymbolTableRecord
100
AcDbLayerTableRecord
  2
1
 70
     0
 62
     7
420
 16777215
  6
Continuous
370
    -3
390
F
347
46
  0
ENDTAB
  0
TABLE
  2
STYLE
  5
3
330
0
100
AcDbSymbolTable
 70
     3
  0
STYLE
  5
11
330
3
100
AcDbSymbolTableRecord
100
AcDbTextStyleTableRecord
  2
Standard
 70
     0
 40
0.0
 41
1.0
 50
0.0
 71
     0
 42
0.2
  3
txt
  4

  0
STYLE
  5
295
330
3
100
AcDbSymbolTableRecord
100
AcDbTextStyleTableRecord
  2
Arial
 70
     0
 40
0.0
 41
1.0
 50
0.0
 71
     0
 42
0.2
  3

  4

1001
ACAD
1000
Arial
1071
        0
  0
STYLE
  5
296
330
3
100
AcDbSymbolTableRecord
100
AcDbTextStyleTableRecord
  2
DWGDirectTextStyle
 70
     0
 40
0.0
 41
1.0
 50
0.0
 71
     0
 42
0.2
  3
Arial
  4

  0
ENDTAB
  0
TABLE
  2
VIEW
  5
6
330
0
100
AcDbSymbolTable
 70
     0
  0
ENDTAB
  0
TABLE
  2
UCS
  5
7
330
0
100
AcDbSymbolTable
 70
     0
  0
ENDTAB
  0
TABLE
  2
APPID
  5
9
330
0
100
AcDbSymbolTable
 70
     1
  0
APPID
  5
12
330
9
100
AcDbSymbolTableRecord
100
AcDbRegAppTableRecord
  2
ACAD
 70
     0
  0
ENDTAB
  0
TABLE
  2
DIMSTYLE
  5
A
330
0
100
AcDbSymbolTable
 70
     1
100
AcDbDimStyleTable
  0
DIMSTYLE
105
27
330
A
100
AcDbSymbolTableRecord
100
AcDbDimStyleTableRecord
  2
Standard
 70
     0
178
     0
340
11
  0
ENDTAB
  0
TABLE
  2
BLOCK_RECORD
  5
1
330
0
100
AcDbSymbolTable
 70
     1
  0
BLOCK_RECORD
  5
1F
330
1
100
AcDbSymbolTableRecord
100
AcDbBlockTableRecord
  2
*Model_Space
340
22
 70
     0
280
     1
281
     0
  0
BLOCK_RECORD
  5
1B
330
1
100
AcDbSymbolTableRecord
100
AcDbBlockTableRecord
  2
*Paper_Space
340
1E
 70
     0
280
     1
281
     0
  0
BLOCK_RECORD
  5
23
330
1
100
AcDbSymbolTableRecord
100
AcDbBlockTableRecord
  2
*Paper_Space0
340
26
 70
     0
280
     1
281
     0
  0
ENDTAB
  0
ENDSEC
  0
SECTION
  2
BLOCKS
  0
BLOCK
  5
20
330
1F
100
AcDbEntity
  8
0
100
AcDbBlockBegin
  2
*Model_Space
 70
     0
 10
0.0
 20
0.0
 30
0.0
  3
*Model_Space
  1

  0
ENDBLK
  5
21
330
1F
100
AcDbEntity
  8
0
100
AcDbBlockEnd
  0
BLOCK
  5
1C
330
1B
100
AcDbEntity
 67
     1
  8
0
100
AcDbBlockBegin
  2
*Paper_Space
 70
     0
 10
0.0
 20
0.0
 30
0.0
  3
*Paper_Space
  1

  0
ENDBLK
  5
1D
330
1B
100
AcDbEntity
 67
     1
  8
0
100
AcDbBlockEnd
  0
BLOCK
  5
24
330
23
100
AcDbEntity
  8
0
100
AcDbBlockBegin
  2
*Paper_Space0
 70
     0
 10
0.0
 20
0.0
 30
0.0
  3
*Paper_Space0
  1

  0
ENDBLK
  5
25
330
23
100
AcDbEntity
  8
0
100
AcDbBlockEnd
  0
ENDSEC
  0
SECTION
  2
ENTITIES
  0
LINE
  5
68
330
1F
100
AcDbEntity
  8
1
  6
Continuous
 62
   155
370
    25
100
AcDbLine
 10
5898.366564
 20
6117.841485
 30
0.0
 11
5898.366564
 21
6108.349909
 31
0.0
  0
LINE
  5
6A
330
1F
100
AcDbEntity
  8
1
  6
PHANTOM
 62
   135
370
    13
100
AcDbLine
 10
6328.216564
 20
5685.345697
 30
0.0
 11
6328.216564
 21
5671.095697
 31
0.0
  0
LINE
  5
6B
330
1F
100
AcDbEntity
  8
1
  6
PHANTOM
 62
   135
370
    13
100
AcDbLine
 10
6328.216564
 20
5726.095697
 30
0.0
 11
6328.216564
 21
5711.845697
 31
0.0
  0
LINE
  5
6C
330
1F
100
AcDbEntity
  8
1
  6
PHANTOM
 62
   135
370
    13
100
AcDbLine
 10
6328.216564
 20
6165.345697
 30
0.0
 11
6328.216564
 21
6151.095697
 31
0.0
  0
LINE
  5
6D
330
1F
100
AcDbEntity
  8
1
  6
PHANTOM
 62
   135
370
    13
100
AcDbLine
 10
6328.216564
 20
6206.095697
 30
0.0
 11
6328.216564
 21
6191.845697
 31
0.0
  0
LINE
  5
6E
330
1F
100
AcDbEntity
  8
1
  6
PHANTOM
 62
   135
370
    13
100
AcDbLine
 10
6326.216564
 20
5685.345697
 30
0.0
 11
6326.216564
 21
5671.095697
 31
0.0
  0
LINE
  5
6F
330
1F
100
AcDbEntity
  8
1
  6
PHANTOM
 62
   135
370
    13
100
AcDbLine
 10
6326.216564
 20
5726.095697
 30
0.0
 11
6326.216564
 21
5711.845697
 31
0.0
  0
LINE
  5
70
330
1F
100
AcDbEntity
  8
1
  6
PHANTOM
 62
   135
370
    13
100
AcDbLine
 10
6326.216564
 20
6206.095697
 30
0.0
 11
6326.216564
 21
6191.845697
 31
0.0
  0
LINE
  5
71
330
1F
100
AcDbEntity
  8
1
  6
PHANTOM
 62
   135
370
    13
100
AcDbLine
 10
6326.216564
 20
6165.345697
 30
0.0
 11
6326.216564
 21
6151.095697
 31
0.0
  0
LINE
  5
72
330
1F
100
AcDbEntity
  8
1
  6
PHANTOM
 62
   135
370
    13
100
AcDbLine
 10
6333.666564
 20
5711.845697
 30
0.0
 11
6333.666564
 21
5726.095697
 31
0.0
  0
LINE
  5
73
330
1F
100
AcDbEntity
  8
1
  6
PHANTOM
 62
   135
370
    13
100
AcDbLine
 10
6333.666564
 20
6191.845697
 30
0.0
 11
6333.666564
 21
6206.095697
 31
0.0
  0
LINE
  5
74
330
1F
100
AcDbEntity
  8
1
  6
PHANTOM
 62
   135
370
    13
100
AcDbLine
 10
6333.666564
 20
6151.095697
 30
0.0
 11
6333.666564
 21
6165.345697
 31
0.0
  0
LINE
  5
75
330
1F
100
AcDbEntity
  8
1
  6
PHANTOM
 62
   135
370
    13
100
AcDbLine
 10
6333.666564
 20
5671.095697
 30
0.0
 11
6333.666564
 21
5685.345697
 31
0.0
  0
LINE
  5
76
330
1F
100
AcDbEntity
  8
1
  6
Continuous
 62
   155
370
    25
100
AcDbLine
 10
5892.912352
 20
6102.895697
 30
0.0
 11
5883.420777
 21
6102.895697
 31
0.0
  0
LINE
  5
77
330
1F
100
AcDbEntity
  8
1
  6
Continuous
 62
   155
370
    25
100
AcDbLine
 10
5877.966564
 20
6108.349909
 30
0.0
 11
5877.966564
 21
6117.841485
 31
0.0
  0
LINE
  5
78
330
1F
100
AcDbEntity
  8
1
  6
PHANTOM
 62
   135
370
    13
100
AcDbLine
 10
5880.166564
 20
6208.595697
 30
0.0
 11
5870.366564
 21
6208.595697
 31
0.0
  0
LINE
  5
79
330
1F
100
AcDbEntity
  8
1
  6
PHANTOM
 62
   135
370
    13
100
AcDbLine
 10
5880.166564
 20
5668.595697
 30
0.0
 11
5870.366564
 21
5668.595697
 31
0.0
  0
LINE
  5
7A
330
1F
100
AcDbEntity
  8
1
  6
PHANTOM
 62
   135
370
    13
100
AcDbLine
 10
5880.166564
 20
5668.595697
 30
0.0
 11
5880.166564
 21
5714.595697
 31
0.0
  0
LINE
  5
7B
330
1F
100
AcDbEntity
  8
1
  6
PHANTOM
 62
   135
370
    13
100
AcDbLine
 10
6287.466564
 20
6208.595697
 30
0.0
 11
6277.666564
 21
6208.595697
 31
0.0
  0
LINE
  5
7C
330
1F
100
AcDbEntity
  8
1
  6
PHANTOM
 62
   135
370
    13
100
AcDbLine
 10
6287.466564
 20
5668.595697
 30
0.0
 11
6277.666564
 21
5668.595697
 31
0.0
  0
LINE
  5
7D
330
1F
100
AcDbEntity
  8
1
  6
PHANTOM
 62
   135
370
    13
100
AcDbLine
 10
6277.666564
 20
5668.595697
 30
0.0
 11
6277.666564
 21
5714.595697
 31
0.0
  0
LINE
  5
7E
330
1F
100
AcDbEntity
  8
1
  6
PHANTOM
 62
   135
370
    13
100
AcDbLine
 10
5868.366564
 20
6208.595697
 30
0.0
 11
5870.366564
 21
6208.595697
 31
0.0
  0
LINE
  5
7F
330
1F
100
AcDbEntity
  8
1
  6
PHANTOM
 62
   135
370
    13
100
AcDbLine
 10
5870.366564
 20
5668.595697
 30
0.0
 11
5868.366564
 21
5668.595697
 31
0.0
  0
LINE
  5
80
330
1F
100
AcDbEntity
  8
1
  6
PHANTOM
 62
   135
370
    13
100
AcDbLine
 10
6287.466564
 20
6208.595697
 30
0.0
 11
6289.466564
 21
6208.595697
 31
0.0
  0
LINE
  5
81
330
1F
100
AcDbEntity
  8
1
  6
PHANTOM
 62
   135
370
    13
100
AcDbLine
 10
6289.466564
 20
5668.595697
 30
0.0
 11
6287.466564
 21
5668.595697
 31
0.0
  0
LINE
  5
82
330
1F
100
AcDbEntity
  8
1
  6
PHANTOM
 62
   135
370
    13
100
AcDbLine
 10
6330.26404
 20
5685.345697
 30
0.0
 11
6332.66646
 21
5685.345697
 31
0.0
  0
LINE
  5
83
330
1F
100
AcDbEntity
  8
1
  6
PHANTOM
 62
   135
370
    13
100
AcDbLine
 10
6330.26404
 20
5711.845697
 30
0.0
 11
6332.66646
 21
5711.845697
 31
0.0
  0
LINE
  5
84
330
1F
100
AcDbEntity
  8
1
  6
PHANTOM
 62
   135
370
    13
100
AcDbLine
 10
6330.26404
 20
6165.345697
 30
0.0
 11
6332.66646
 21
6165.345697
 31
0.0
  0
LINE
  5
85
330
1F
100
AcDbEntity
  8
1
  6
PHANTOM
 62
   135
370
    13
100
AcDbLine
 10
6330.26404
 20
6191.845697
 30
0.0
 11
6332.66646
 21
6191.845697
 31
0.0
  0
LINE
  5
86
330
1F
100
AcDbEntity
  8
1
  6
PHANTOM
 62
   135
370
    13
100
AcDbLine
 10
6330.264071
 20
5685.345697
 30
0.0
 11
6330.264071
 21
5671.095697
 31
0.0
  0
LINE
  5
87
330
1F
100
AcDbEntity
  8
1
  6
PHANTOM
 62
   135
370
    13
100
AcDbLine
 10
6330.264071
 20
5726.095697
 30
0.0
 11
6330.264071
 21
5711.845697
 31
0.0
  0
LINE
  5
88
330
1F
100
AcDbEntity
  8
1
  6
PHANTOM
 62
   135
370
    13
100
AcDbLine
 10
6330.264071
 20
6191.845697
 30
0.0
 11
6330.264071
 21
6206.095697
 31
0.0
  0
LINE
  5
89
330
1F
100
AcDbEntity
  8
1
  6
PHANTOM
 62
   135
370
    13
100
AcDbLine
 10
6330.264071
 20
6151.095697
 30
0.0
 11
6330.264071
 21
6165.345697
 31
0.0
  0
LINE
  5
8A
330
1F
100
AcDbEntity
  8
1
  6
PHANTOM
 62
   135
370
    13
100
AcDbLine
 10
6326.216564
 20
5685.345697
 30
0.0
 11
6329.866564
 21
5685.345697
 31
0.0
  0
LINE
  5
8B
330
1F
100
AcDbEntity
  8
1
  6
PHANTOM
 62
   135
370
    13
100
AcDbLine
 10
6329.866564
 20
5685.345697
 30
0.0
 11
6329.866564
 21
5671.095697
 31
0.0
  0
LINE
  5
8C
330
1F
100
AcDbEntity
  8
1
  6
PHANTOM
 62
   135
370
    13
100
AcDbLine
 10
6326.216564
 20
5711.845697
 30
0.0
 11
6329.866564
 21
5711.845697
 31
0.0
  0
LINE
  5
8D
330
1F
100
AcDbEntity
  8
1
  6
PHANTOM
 62
   135
370
    13
100
AcDbLine
 10
6329.866564
 20
5726.095697
 30
0.0
 11
6329.866564
 21
5711.845697
 31
0.0
  0
LINE
  5
8E
330
1F
100
AcDbEntity
  8
1
  6
PHANTOM
 62
   135
370
    13
100
AcDbLine
 10
6326.216564
 20
6191.845697
 30
0.0
 11
6329.866564
 21
6191.845697
 31
0.0
  0
LINE
  5
8F
330
1F
100
AcDbEntity
  8
1
  6
PHANTOM
 62
   135
370
    13
100
AcDbLine
 10
6329.866564
 20
6191.845697
 30
0.0
 11
6329.866564
 21
6206.095697
 31
0.0
  0
LINE
  5
90
330
1F
100
AcDbEntity
  8
1
  6
PHANTOM
 62
   135
370
    13
100
AcDbLine
 10
6326.216564
 20
6165.345697
 30
0.0
 11
6329.866564
 21
6165.345697
 31
0.0
  0
LINE
  5
91
330
1F
100
AcDbEntity
  8
1
  6
PHANTOM
 62
   135
370
    13
100
AcDbLine
 10
6329.866564
 20
6151.095697
 30
0.0
 11
6329.866564
 21
6165.345697
 31
0.0
  0
LINE
  5
92
330
1F
100
AcDbEntity
  8
1
  6
PHANTOM
 62
   135
370
    13
100
AcDbLine
 10
6332.666564
 20
5685.345697
 30
0.0
 11
6335.494992
 21
5685.345697
 31
0.0
  0
LINE
  5
93
330
1F
100
AcDbEntity
  8
1
  6
PHANTOM
 62
   135
370
    13
100
AcDbLine
 10
6332.666564
 20
6165.345697
 30
0.0
 11
6335.494992
 21
6165.345697
 31
0.0
  0
LINE
  5
94
330
1F
100
AcDbEntity
  8
1
  6
PHANTOM
 62
   135
370
    13
100
AcDbLine
 10
6332.666564
 20
6191.845697
 30
0.0
 11
6335.494992
 21
6191.845697
 31
0.0
  0
LINE
  5
95
330
1F
100
AcDbEntity
  8
1
  6
PHANTOM
 62
   135
370
    13
100
AcDbLine
 10
6332.666564
 20
5711.845697
 30
0.0
 11
6335.494992
 21
5711.845697
 31
0.0
  0
LINE
  5
96
330
1F
100
AcDbEntity
  8
1
  6
Continuous
 62
   155
370
    25
100
AcDbLine
 10
6337.166564
 20
5645.595697
 30
0.0
 11
6337.166564
 21
6231.595697
 31
0.0
  0
LINE
  5
97
330
1F
100
AcDbEntity
  8
1
  6
PHANTOM
 62
   135
370
    13
100
AcDbLine
 10
5880.166564
 20
5714.595697
 30
0.0
 11
5871.166564
 21
5723.595697
 31
0.0
  0
LINE
  5
98
330
1F
100
AcDbEntity
  8
1
  6
PHANTOM
 62
   135
370
    13
100
AcDbLine
 10
5871.166564
 20
5723.595697
 30
0.0
 11
5871.166564
 21
5803.595697
 31
0.0
  0
LINE
  5
99
330
1F
100
AcDbEntity
  8
1
  6
PHANTOM
 62
   135
370
    13
100
AcDbLine
 10
5871.166564
 20
5803.595697
 30
0.0
 11
5880.166564
 21
5812.595697
 31
0.0
  0
LINE
  5
9A
330
1F
100
AcDbEntity
  8
1
  6
PHANTOM
 62
   135
370
    13
100
AcDbLine
 10
5880.166564
 20
5812.595697
 30
0.0
 11
5880.166564
 21
6064.595697
 31
0.0
  0
LINE
  5
9B
330
1F
100
AcDbEntity
  8
1
  6
PHANTOM
 62
   135
370
    13
100
AcDbLine
 10
5880.166564
 20
6064.595697
 30
0.0
 11
5871.166564
 21
6073.595697
 31
0.0
  0
LINE
  5
9C
330
1F
100
AcDbEntity
  8
1
  6
PHANTOM
 62
   135
370
    13
100
AcDbLine
 10
5871.166564
 20
6073.595697
 30
0.0
 11
5871.166564
 21
6153.595697
 31
0.0
  0
LINE
  5
9D
330
1F
100
AcDbEntity
  8
1
  6
PHANTOM
 62
   135
370
    13
100
AcDbLine
 10
5871.166564
 20
6153.595697
 30
0.0
 11
5880.166564
 21
6162.595697
 31
0.0
  0
LINE
  5
9E
330
1F
100
AcDbEntity
  8
1
  6
PHANTOM
 62
   135
370
    13
100
AcDbLine
 10
5880.166564
 20
6162.595697
 30
0.0
 11
5880.166564
 21
6208.595697
 31
0.0
  0
LINE
  5
9F
330
1F
100
AcDbEntity
  8
1
  6
PHANTOM
 62
   135
370
    13
100
AcDbLine
 10
6277.666564
 20
6162.595697
 30
0.0
 11
6277.666564
 21
6208.595697
 31
0.0
  0
LINE
  5
A0
330
1F
100
AcDbEntity
  8
1
  6
PHANTOM
 62
   135
370
    13
100
AcDbLine
 10
6277.666564
 20
6162.595697
 30
0.0
 11
6286.666564
 21
6153.595697
 31
0.0
  0
LINE
  5
A1
330
1F
100
AcDbEntity
  8
1
  6
PHANTOM
 62
   135
370
    13
100
AcDbLine
 10
6286.666564
 20
6153.595697
 30
0.0
 11
6286.666564
 21
6073.595697
 31
0.0
  0
LINE
  5
A2
330
1F
100
AcDbEntity
  8
1
  6
PHANTOM
 62
   135
370
    13
100
AcDbLine
 10
6286.666564
 20
6073.595697
 30
0.0
 11
6277.666564
 21
6064.595697
 31
0.0
  0
LINE
  5
A3
330
1F
100
AcDbEntity
  8
1
  6
PHANTOM
 62
   135
370
    13
100
AcDbLine
 10
6277.666564
 20
5812.595697
 30
0.0
 11
6277.666564
 21
6064.595697
 31
0.0
  0
LINE
  5
A4
330
1F
100
AcDbEntity
  8
1
  6
PHANTOM
 62
   135
370
    13
100
AcDbLine
 10
6277.666564
 20
5812.595697
 30
0.0
 11
6286.666564
 21
5803.595697
 31
0.0
  0
LINE
  5
A5
330
1F
100
AcDbEntity
  8
1
  6
PHANTOM
 62
   135
370
    13
100
AcDbLine
 10
6286.666564
 20
5803.595697
 30
0.0
 11
6286.666564
 21
5723.595697
 31
0.0
  0
LINE
  5
A6
330
1F
100
AcDbEntity
  8
1
  6
PHANTOM
 62
   135
370
    13
100
AcDbLine
 10
6286.666564
 20
5723.595697
 30
0.0
 11
6277.666564
 21
5714.595697
 31
0.0
  0
LINE
  5
A7
330
1F
100
AcDbEntity
  8
1
  6
PHANTOM
 62
   135
370
    13
100
AcDbLine
 10
5866.363707
 20
6208.595697
 30
0.0
 11
5866.366564
 21
6208.595697
 31
0.0
  0
LINE
  5
A8
330
1F
100
AcDbEntity
  8
1
  6
PHANTOM
 62
   135
370
    13
100
AcDbLine
 10
5866.366564
 20
5668.595697
 30
0.0
 11
5866.363707
 21
5668.595697
 31
0.0
  0
LINE
  5
A9
330
1F
100
AcDbEntity
  8
1
  6
PHANTOM
 62
   135
370
    13
100
AcDbLine
 10
5866.363707
 20
5668.595697
 30
0.0
 11
5866.363707
 21
6208.595697
 31
0.0
  0
LINE
  5
AA
330
1F
100
AcDbEntity
  8
1
  6
PHANTOM
 62
   135
370
    13
100
AcDbLine
 10
5866.366564
 20
6212.595697
 30
0.0
 11
5866.366564
 21
6208.595697
 31
0.0
  0
LINE
  5
AB
330
1F
100
AcDbEntity
  8
1
  6
Continuous
 62
   155
370
    25
100
AcDbLine
 10
5883.420777
 20
5753.895697
 30
0.0
 11
5892.912352
 21
5753.895697
 31
0.0
  0
LINE
  5
AC
330
1F
100
AcDbEntity
  8
1
  6
Continuous
 62
   155
370
    25
100
AcDbLine
 10
5877.966564
 20
5768.841485
 30
0.0
 11
5877.966564
 21
5759.349909
 31
0.0
  0
LINE
  5
AD
330
1F
100
AcDbEntity
  8
1
  6
Continuous
 62
   155
370
    25
100
AcDbLine
 10
5892.912352
 20
5774.295697
 30
0.0
 11
5883.420777
 21
5774.295697
 31
0.0
  0
LINE
  5
AE
330
1F
100
AcDbEntity
  8
1
  6
Continuous
 62
   155
370
    25
100
AcDbLine
 10
5898.366564
 20
5759.349909
 30
0.0
 11
5898.366564
 21
5768.841485
 31
0.0
  0
LINE
  5
AF
330
1F
100
AcDbEntity
  8
1
  6
PHANTOM
 62
   135
370
    13
100
AcDbLine
 10
5867.166564
 20
5668.595697
 30
0.0
 11
5867.166564
 21
6208.595697
 31
0.0
  0
LINE
  5
B0
330
1F
100
AcDbEntity
  8
1
  6
PHANTOM
 62
   135
370
    13
100
AcDbLine
 10
6290.666564
 20
6208.595697
 30
0.0
 11
6290.666564
 21
5668.595697
 31
0.0
  0
LINE
  5
B1
330
1F
100
AcDbEntity
  8
1
  6
PHANTOM
 62
   135
370
    13
100
AcDbLine
 10
5866.366564
 20
6212.595697
 30
0.0
 11
5859.366564
 21
6219.595697
 31
0.0
  0
LINE
  5
B2
330
1F
100
AcDbEntity
  8
1
  6
PHANTOM
 62
   135
370
    13
100
AcDbLine
 10
5866.366564
 20
5664.595697
 30
0.0
 11
5859.366564
 21
5657.595697
 31
0.0
  0
LINE
  5
B3
330
1F
100
AcDbEntity
  8
1
  6
PHANTOM
 62
   135
370
    13
100
AcDbLine
 10
6325.466564
 20
6151.095697
 30
0.0
 11
6325.394768
 21
6151.095697
 31
0.0
  0
LINE
  5
B4
330
1F
100
AcDbEntity
  8
1
  6
PHANTOM
 62
   135
370
    13
100
AcDbLine
 10
6325.394768
 20
6206.095697
 30
0.0
 11
6325.466564
 21
6206.095697
 31
0.0
  0
LINE
  5
B5
330
1F
100
AcDbEntity
  8
1
  6
PHANTOM
 62
   135
370
    13
100
AcDbLine
 10
6325.466564
 20
5671.095697
 30
0.0
 11
6325.394768
 21
5671.095697
 31
0.0
  0
LINE
  5
B6
330
1F
100
AcDbEntity
  8
1
  6
PHANTOM
 62
   135
370
    13
100
AcDbLine
 10
6325.394768
 20
5726.095697
 30
0.0
 11
6325.466564
 21
5726.095697
 31
0.0
  0
LINE
  5
B7
330
1F
100
AcDbEntity
  8
1
  6
PHANTOM
 62
   135
370
    13
100
AcDbLine
 10
6318.466564
 20
5657.595697
 30
0.0
 11
6311.466564
 21
5664.595697
 31
0.0
  0
LINE
  5
B8
330
1F
100
AcDbEntity
  8
1
  6
PHANTOM
 62
   135
370
    13
100
AcDbLine
 10
6318.466564
 20
6219.595697
 30
0.0
 11
6311.466564
 21
6212.595697
 31
0.0
  0
LINE
  5
B9
330
1F
100
AcDbEntity
  8
1
  6
PHANTOM
 62
   135
370
    13
100
AcDbLine
 10
6325.394768
 20
6151.095697
 30
0.0
 11
6325.394768
 21
6206.095697
 31
0.0
  0
LINE
  5
BA
330
1F
100
AcDbEntity
  8
1
  6
PHANTOM
 62
   135
370
    13
100
AcDbLine
 10
6325.394768
 20
5671.095697
 30
0.0
 11
6325.394768
 21
5726.095697
 31
0.0
  0
LINE
  5
BB
330
1F
100
AcDbEntity
  8
1
  6
PHANTOM
 62
   135
370
    13
100
AcDbLine
 10
5842.166564
 20
6231.595697
 30
0.0
 11
5842.166564
 21
5645.595697
 31
0.0
  0
LINE
  5
BC
330
1F
100
AcDbEntity
  8
1
  6
PHANTOM
 62
   135
370
    13
100
AcDbLine
 10
5852.366564
 20
5657.595697
 30
0.0
 11
5852.366564
 21
6219.595697
 31
0.0
  0
LINE
  5
BD
330
1F
100
AcDbEntity
  8
1
  6
PHANTOM
 62
   135
370
    13
100
AcDbLine
 10
5868.366564
 20
5668.595697
 30
0.0
 11
5868.366564
 21
6208.595697
 31
0.0
  0
LINE
  5
BE
330
1F
100
AcDbEntity
  8
1
  6
PHANTOM
 62
   135
370
    13
100
AcDbLine
 10
5866.366564
 20
5668.595697
 30
0.0
 11
5866.366564
 21
5664.595697
 31
0.0
  0
LINE
  5
BF
330
1F
100
AcDbEntity
  8
1
  6
PHANTOM
 62
   135
370
    13
100
AcDbLine
 10
5868.366564
 20
5668.595697
 30
0.0
 11
5866.366564
 21
5668.595697
 31
0.0
  0
LINE
  5
C0
330
1F
100
AcDbEntity
  8
1
  6
PHANTOM
 62
   135
370
    13
100
AcDbLine
 10
5868.366564
 20
6208.595697
 30
0.0
 11
5866.366564
 21
6208.595697
 31
0.0
  0
LINE
  5
C1
330
1F
100
AcDbEntity
  8
1
  6
PHANTOM
 62
   135
370
    13
100
AcDbLine
 10
6289.466564
 20
5668.595697
 30
0.0
 11
6289.466564
 21
6208.595697
 31
0.0
  0
LINE
  5
C2
330
1F
100
AcDbEntity
  8
1
  6
PHANTOM
 62
   135
370
    13
100
AcDbLine
 10
6303.466564
 20
5668.595697
 30
0.0
 11
6289.466564
 21
5668.595697
 31
0.0
  0
LINE
  5
C3
330
1F
100
AcDbEntity
  8
1
  6
PHANTOM
 62
   135
370
    13
100
AcDbLine
 10
6303.466564
 20
6208.595697
 30
0.0
 11
6289.466564
 21
6208.595697
 31
0.0
  0
LINE
  5
C4
330
1F
100
AcDbEntity
  8
1
  6
PHANTOM
 62
   135
370
    13
100
AcDbLine
 10
6303.466564
 20
5668.595697
 30
0.0
 11
6303.466564
 21
6208.595697
 31
0.0
  0
LINE
  5
C5
330
1F
100
AcDbEntity
  8
1
  6
PHANTOM
 62
   135
370
    13
100
AcDbLine
 10
5866.366564
 20
5664.595697
 30
0.0
 11
6311.466564
 21
5664.595697
 31
0.0
  0
LINE
  5
C6
330
1F
100
AcDbEntity
  8
1
  6
PHANTOM
 62
   135
370
    13
100
AcDbLine
 10
6311.466564
 20
6212.595697
 30
0.0
 11
5866.366564
 21
6212.595697
 31
0.0
  0
LINE
  5
C7
330
1F
100
AcDbEntity
  8
1
  6
PHANTOM
 62
   135
370
    13
100
AcDbLine
 10
6311.466564
 20
5664.595697
 30
0.0
 11
6311.466564
 21
6212.595697
 31
0.0
  0
LINE
  5
C8
330
1F
100
AcDbEntity
  8
1
  6
PHANTOM
 62
   135
370
    13
100
AcDbLine
 10
5859.366564
 20
6226.595697
 30
0.0
 11
6318.466564
 21
6226.595697
 31
0.0
  0
LINE
  5
C9
330
1F
100
AcDbEntity
  8
1
  6
PHANTOM
 62
   135
370
    13
100
AcDbLine
 10
6318.466564
 20
5650.595697
 30
0.0
 11
5859.366564
 21
5650.595697
 31
0.0
  0
LINE
  5
CA
330
1F
100
AcDbEntity
  8
1
  6
PHANTOM
 62
   135
370
    13
100
AcDbLine
 10
6325.466564
 20
6151.095697
 30
0.0
 11
6325.466564
 21
5726.095697
 31
0.0
  0
LINE
  5
CB
330
1F
100
AcDbEntity
  8
1
  6
PHANTOM
 62
   135
370
    13
100
AcDbLine
 10
6325.466564
 20
5671.095697
 30
0.0
 11
6325.466564
 21
5657.595697
 31
0.0
  0
LINE
  5
CC
330
1F
100
AcDbEntity
  8
1
  6
PHANTOM
 62
   135
370
    13
100
AcDbLine
 10
5845.166564
 20
5642.595697
 30
0.0
 11
6332.666564
 21
5642.595697
 31
0.0
  0
LINE
  5
CD
330
1F
100
AcDbEntity
  8
1
  6
PHANTOM
 62
   135
370
    13
100
AcDbLine
 10
6332.666564
 20
6234.595697
 30
0.0
 11
5845.166564
 21
6234.595697
 31
0.0
  0
LINE
  5
CE
330
1F
100
AcDbEntity
  8
1
  6
PHANTOM
 62
   135
370
    13
100
AcDbLine
 10
6335.666564
 20
5645.595697
 30
0.0
 11
6335.666564
 21
6231.595697
 31
0.0
  0
LINE
  5
CF
330
1F
100
AcDbEntity
  8
1
  6
PHANTOM
 62
   135
370
    13
100
AcDbLine
 10
6325.466564
 20
6219.595697
 30
0.0
 11
6325.466564
 21
6206.095697
 31
0.0
  0
LINE
  5
D0
330
1F
100
AcDbEntity
  8
1
  6
PHANTOM
 62
   135
370
    13
100
AcDbLine
 10
6332.666564
 20
5726.095697
 30
0.0
 11
6325.466564
 21
5726.095697
 31
0.0
  0
LINE
  5
D1
330
1F
100
AcDbEntity
  8
1
  6
PHANTOM
 62
   135
370
    13
100
AcDbLine
 10
6332.666564
 20
5726.095697
 30
0.0
 11
6332.666564
 21
5671.095697
 31
0.0
  0
LINE
  5
D2
330
1F
100
AcDbEntity
  8
1
  6
PHANTOM
 62
   135
370
    13
100
AcDbLine
 10
6335.666564
 20
5671.095697
 30
0.0
 11
6332.666564
 21
5671.095697
 31
0.0
  0
LINE
  5
D3
330
1F
100
AcDbEntity
  8
1
  6
PHANTOM
 62
   135
370
    13
100
AcDbLine
 10
6335.494992
 20
5711.845697
 30
0.0
 11
6335.666564
 21
5711.845697
 31
0.0
  0
LINE
  5
D4
330
1F
100
AcDbEntity
  8
1
  6
PHANTOM
 62
   135
370
    13
100
AcDbLine
 10
6335.666564
 20
5726.095697
 30
0.0
 11
6332.666564
 21
5726.095697
 31
0.0
  0
LINE
  5
D5
330
1F
100
AcDbEntity
  8
1
  6
PHANTOM
 62
   135
370
    13
100
AcDbLine
 10
6335.494992
 20
5685.345697
 30
0.0
 11
6335.666564
 21
5685.345697
 31
0.0
  0
LINE
  5
D6
330
1F
100
AcDbEntity
  8
1
  6
PHANTOM
 62
   135
370
    13
100
AcDbLine
 10
6335.494992
 20
5711.845697
 30
0.0
 11
6335.494992
 21
5685.345697
 31
0.0
  0
LINE
  5
D7
330
1F
100
AcDbEntity
  8
1
  6
PHANTOM
 62
   135
370
    13
100
AcDbLine
 10
6335.666564
 20
6151.095697
 30
0.0
 11
6332.666564
 21
6151.095697
 31
0.0
  0
LINE
  5
D8
330
1F
100
AcDbEntity
  8
1
  6
PHANTOM
 62
   135
370
    13
100
AcDbLine
 10
6335.666564
 20
6206.095697
 30
0.0
 11
6332.666564
 21
6206.095697
 31
0.0
  0
LINE
  5
D9
330
1F
100
AcDbEntity
  8
1
  6
PHANTOM
 62
   135
370
    13
100
AcDbLine
 10
6332.666564
 20
6151.095697
 30
0.0
 11
6332.666564
 21
6206.095697
 31
0.0
  0
LINE
  5
DA
330
1F
100
AcDbEntity
  8
1
  6
PHANTOM
 62
   135
370
    13
100
AcDbLine
 10
6335.494992
 20
6165.345697
 30
0.0
 11
6335.666564
 21
6165.345697
 31
0.0
  0
LINE
  5
DB
330
1F
100
AcDbEntity
  8
1
  6
PHANTOM
 62
   135
370
    13
100
AcDbLine
 10
6335.494992
 20
6165.345697
 30
0.0
 11
6335.494992
 21
6191.845697
 31
0.0
  0
LINE
  5
DC
330
1F
100
AcDbEntity
  8
1
  6
PHANTOM
 62
   135
370
    13
100
AcDbLine
 10
6335.494992
 20
6191.845697
 30
0.0
 11
6335.666564
 21
6191.845697
 31
0.0
  0
LINE
  5
DD
330
1F
100
AcDbEntity
  8
1
  6
PHANTOM
 62
   135
370
    13
100
AcDbLine
 10
6332.666564
 20
5671.095697
 30
0.0
 11
6325.466564
 21
5671.095697
 31
0.0
  0
LINE
  5
DE
330
1F
100
AcDbEntity
  8
1
  6
PHANTOM
 62
   135
370
    13
100
AcDbLine
 10
6332.666564
 20
6151.095697
 30
0.0
 11
6325.466564
 21
6151.095697
 31
0.0
  0
LINE
  5
DF
330
1F
100
AcDbEntity
  8
1
  6
PHANTOM
 62
   135
370
    13
100
AcDbLine
 10
6332.666564
 20
6206.095697
 30
0.0
 11
6325.466564
 21
6206.095697
 31
0.0
  0
LINE
  5
E0
330
1F
100
AcDbEntity
  8
1
  6
Continuous
 62
   155
370
    25
100
AcDbLine
 10
5840.666564
 20
6231.595697
 30
0.0
 11
5840.666564
 21
5645.595697
 31
0.0
  0
LINE
  5
E1
330
1F
100
AcDbEntity
  8
1
  6
Continuous
 62
   155
370
    25
100
AcDbLine
 10
5845.166564
 20
5641.095697
 30
0.0
 11
6332.666564
 21
5641.095697
 31
0.0
  0
LINE
  5
E2
330
1F
100
AcDbEntity
  8
1
  6
Continuous
 62
   155
370
    25
100
AcDbLine
 10
6332.666564
 20
6236.095697
 30
0.0
 11
5845.166564
 21
6236.095697
 31
0.0
  0
LINE
  5
E3
330
1F
100
AcDbEntity
  8
1
  6
Continuous
 62
   155
370
    25
100
AcDbLine
 10
5883.420777
 20
6123.295697
 30
0.0
 11
5892.912352
 21
6123.295697
 31
0.0
  0
LINE
  5
E4
330
1F
100
AcDbEntity
  8
1
  6
PHANTOM
 62
   135
370
    13
100
AcDbLine
 10
6292.666564
 20
5305.153135
 30
0.0
 11
6303.466564
 21
5305.153135
 31
0.0
  0
LINE
  5
E5
330
1F
100
AcDbEntity
  8
1
  6
PHANTOM
 62
   135
370
    13
100
AcDbLine
 10
5870.366564
 20
5314.953135
 30
0.0
 11
5880.166564
 21
5314.953135
 31
0.0
  0
LINE
  5
E6
330
1F
100
AcDbEntity
  8
1
  6
PHANTOM
 62
   135
370
    13
100
AcDbLine
 10
5867.166564
 20
5306.755274
 30
0.0
 11
5867.166564
 21
5311.753135
 31
0.0
  0
LINE
  5
E7
330
1F
100
AcDbEntity
  8
1
  6
PHANTOM
 62
   135
370
    13
100
AcDbLine
 10
5868.366564
 20
5311.753135
 30
0.0
 11
5868.366564
 21
5303.953135
 31
0.0
  0
LINE
  5
E8
330
1F
100
AcDbEntity
  8
1
  6
PHANTOM
 62
   135
370
    13
100
AcDbLine
 10
5880.166564
 20
5313.753135
 30
0.0
 11
5870.366564
 21
5313.753135
 31
0.0
  0
LINE
  5
E9
330
1F
100
AcDbEntity
  8
1
  6
PHANTOM
 62
   135
370
    13
100
AcDbLine
 10
5880.166564
 20
5314.953135
 30
0.0
 11
5880.166564
 21
5313.753135
 31
0.0
  0
LINE
  5
EA
330
1F
100
AcDbEntity
  8
1
  6
PHANTOM
 62
   135
370
    13
100
AcDbLine
 10
6311.466564
 20
5304.953135
 30
0.0
 11
6311.466564
 21
5303.953135
 31
0.0
  0
LINE
  5
EB
330
1F
100
AcDbEntity
  8
1
  6
PHANTOM
 62
   135
370
    13
100
AcDbLine
 10
5866.366564
 20
5304.953135
 30
0.0
 11
5866.366564
 21
5303.953135
 31
0.0
  0
LINE
  5
EC
330
1F
100
AcDbEntity
  8
1
  6
PHANTOM
 62
   135
370
    13
100
AcDbLine
 10
6332.666564
 20
5303.953135
 30
0.0
 11
6333.666564
 21
5303.953135
 31
0.0
  0
LINE
  5
ED
330
1F
100
AcDbEntity
  8
1
  6
PHANTOM
 62
   135
370
    13
100
AcDbLine
 10
5844.166564
 20
5303.953135
 30
0.0
 11
5845.166564
 21
5303.953135
 31
0.0
  0
LINE
  5
EE
330
1F
100
AcDbEntity
  8
1
  6
Continuous
 62
   155
370
    25
100
AcDbLine
 10
6267.666564
 20
5318.953135
 30
0.0
 11
6273.666564
 21
5318.953135
 31
0.0
  0
LINE
  5
EF
330
1F
100
AcDbEntity
  8
1
  6
Continuous
 62
   155
370
    25
100
AcDbLine
 10
6337.166564
 20
5316.953135
 30
0.0
 11
6332.666564
 21
5316.953135
 31
0.0
  0
LINE
  5
F0
330
1F
100
AcDbEntity
  8
1
  6
Continuous
 62
   155
370
    25
100
AcDbLine
 10
6332.666564
 20
5302.453135
 30
0.0
 11
6333.666564
 21
5302.453135
 31
0.0
  0
LINE
  5
F1
330
1F
100
AcDbEntity
  8
1
  6
Continuous
 62
   155
370
    25
100
AcDbLine
 10
5844.166564
 20
5302.453135
 30
0.0
 11
5845.166564
 21
5302.453135
 31
0.0
  0
LINE
  5
F2
330
1F
100
AcDbEntity
  8
1
  6
Continuous
 62
   155
370
    25
100
AcDbLine
 10
5845.166564
 20
5316.953135
 30
0.0
 11
5840.666564
 21
5316.953135
 31
0.0
  0
LINE
  5
F3
330
1F
100
AcDbEntity
  8
1
  6
Continuous
 62
   155
370
    25
100
AcDbLine
 10
6332.666564
 20
5316.953135
 30
0.0
 11
5845.166564
 21
5316.953135
 31
0.0
  0
LINE
  5
F4
330
1F
100
AcDbEntity
  8
1
  6
PHANTOM
 62
   135
370
    13
100
AcDbLine
 10
5876.916564
 20
5313.753135
 30
0.0
 11
5876.916564
 21
5314.953135
 31
0.0
  0
LINE
  5
F5
330
1F
100
AcDbEntity
  8
1
  6
PHANTOM
 62
   135
370
    13
100
AcDbLine
 10
5873.416564
 20
5314.953135
 30
0.0
 11
5873.416564
 21
5313.753135
 31
0.0
  0
LINE
  5
F6
330
1F
100
AcDbEntity
  8
1
  6
PHANTOM
 62
   135
370
    13
100
AcDbLine
 10
6284.416564
 20
5313.753135
 30
0.0
 11
6284.416564
 21
5314.953135
 31
0.0
  0
LINE
  5
F7
330
1F
100
AcDbEntity
  8
1
  6
PHANTOM
 62
   135
370
    13
100
AcDbLine
 10
6280.916564
 20
5314.953135
 30
0.0
 11
6280.916564
 21
5313.753135
 31
0.0
  0
LINE
  5
F8
330
1F
100
AcDbEntity
  8
1
  6
PHANTOM
 62
   135
370
    13
100
AcDbLine
 10
6318.466564
 20
5311.953135
 30
0.0
 11
5859.366564
 21
5311.953135
 31
0.0
  0
LINE
  5
F9
330
1F
100
AcDbEntity
  8
1
  6
Continuous
 62
   155
370
    25
100
AcDbLine
 10
6267.666564
 20
5318.953135
 30
0.0
 11
6267.666564
 21
5316.952979
 31
0.0
  0
LINE
  5
FA
330
1F
100
AcDbEntity
  8
1
  6
PHANTOM
 62
   135
370
    13
100
AcDbLine
 10
6267.666564
 20
5316.952979
 30
0.0
 11
6267.666564
 21
5303.953135
 31
0.0
  0
LINE
  5
FB
330
1F
100
AcDbEntity
  8
1
  6
PHANTOM
 62
   135
370
    13
100
AcDbLine
 10
6273.666564
 20
5303.953135
 30
0.0
 11
6273.666564
 21
5316.952979
 31
0.0
  0
LINE
  5
FC
330
1F
100
AcDbEntity
  8
1
  6
Continuous
 62
   155
370
    25
100
AcDbLine
 10
6273.666564
 20
5316.952979
 30
0.0
 11
6273.666564
 21
5318.953135
 31
0.0
  0
LINE
  5
FD
330
1F
100
AcDbEntity
  8
1
  6
Continuous
 62
   155
370
    13
100
AcDbLine
 10
5840.666564
 20
5316.953135
 30
0.0
 11
5840.666564
 21
5305.953135
 31
0.0
  0
LINE
  5
FE
330
1F
100
AcDbEntity
  8
1
  6
PHANTOM
 62
   135
370
    13
100
AcDbLine
 10
5871.166564
 20
5314.953135
 30
0.0
 11
5871.166564
 21
5313.753135
 31
0.0
  0
LINE
  5
FF
330
1F
100
AcDbEntity
  8
1
  6
PHANTOM
 62
   135
370
    13
100
AcDbLine
 10
6286.666564
 20
5314.953135
 30
0.0
 11
6286.666564
 21
5313.753135
 31
0.0
  0
LINE
  5
100
330
1F
100
AcDbEntity
  8
1
  6
PHANTOM
 62
   135
370
    13
100
AcDbLine
 10
5877.966564
 20
5303.953135
 30
0.0
 11
5877.966564
 21
5302.453135
 31
0.0
  0
LINE
  5
101
330
1F
100
AcDbEntity
  8
1
  6
PHANTOM
 62
   135
370
    13
100
AcDbLine
 10
5898.366564
 20
5303.953135
 30
0.0
 11
5898.366564
 21
5302.453135
 31
0.0
  0
LINE
  5
102
330
1F
100
AcDbEntity
  8
1
  6
PHANTOM
 62
   135
370
    13
100
AcDbLine
 10
5892.912352
 20
5303.953135
 30
0.0
 11
5892.912352
 21
5302.453135
 31
0.0
  0
LINE
  5
103
330
1F
100
AcDbEntity
  8
1
  6
PHANTOM
 62
   135
370
    13
100
AcDbLine
 10
5883.420777
 20
5302.453135
 30
0.0
 11
5883.420777
 21
5303.953135
 31
0.0
  0
LINE
  5
104
330
1F
100
AcDbEntity
  8
1
  6
PHANTOM
 62
   135
370
    13
100
AcDbLine
 10
6332.666564
 20
5305.953135
 30
0.0
 11
6335.494992
 21
5305.953135
 31
0.0
  0
LINE
  5
105
330
1F
100
AcDbEntity
  8
1
  6
PHANTOM
 62
   135
370
    13
100
AcDbLine
 10
6325.394768
 20
5305.953135
 30
0.0
 11
6332.666564
 21
5305.953135
 31
0.0
  0
LINE
  5
106
330
1F
100
AcDbEntity
  8
1
  6
PHANTOM
 62
   135
370
    13
100
AcDbLine
 10
6335.298948
 20
5311.553135
 30
0.0
 11
6335.666564
 21
5307.387687
 31
0.0
  0
LINE
  5
107
330
1F
100
AcDbEntity
  8
1
  6
PHANTOM
 62
   135
370
    13
100
AcDbLine
 10
6330.264071
 20
5308.653135
 30
0.0
 11
6329.866564
 21
5306.693034
 31
0.0
  0
LINE
  5
108
330
1F
100
AcDbEntity
  8
1
  6
PHANTOM
 62
   135
370
    13
100
AcDbLine
 10
6333.663212
 20
5307.034952
 30
0.0
 11
6333.308015
 21
5311.361768
 31
0.0
  0
LINE
  5
109
330
1F
100
AcDbEntity
  8
1
  6
PHANTOM
 62
   135
370
    13
100
AcDbLine
 10
6289.466564
 20
5303.953135
 30
0.0
 11
6289.466564
 21
5311.753135
 31
0.0
  0
LINE
  5
10A
330
1F
100
AcDbEntity
  8
1
  6
PHANTOM
 62
   135
370
    13
100
AcDbLine
 10
6277.666564
 20
5314.953135
 30
0.0
 11
6287.466564
 21
5314.953135
 31
0.0
  0
LINE
  5
10B
330
1F
100
AcDbEntity
  8
1
  6
PHANTOM
 62
   135
370
    13
100
AcDbLine
 10
6290.666564
 20
5311.753135
 30
0.0
 11
6290.666564
 21
5307.153135
 31
0.0
  0
LINE
  5
10C
330
1F
100
AcDbEntity
  8
1
  6
PHANTOM
 62
   135
370
    13
100
AcDbLine
 10
6277.666564
 20
5313.753135
 30
0.0
 11
6277.666564
 21
5314.953135
 31
0.0
  0
LINE
  5
10D
330
1F
100
AcDbEntity
  8
1
  6
PHANTOM
 62
   135
370
    13
100
AcDbLine
 10
6287.466564
 20
5313.753135
 30
0.0
 11
6277.666564
 21
5313.753135
 31
0.0
  0
LINE
  5
10E
330
1F
100
AcDbEntity
  8
1
  6
PHANTOM
 62
   135
370
    13
100
AcDbLine
 10
6303.466564
 20
5305.153135
 30
0.0
 11
6303.466564
 21
5303.953135
 31
0.0
  0
LINE
  5
10F
330
1F
100
AcDbEntity
  8
1
  6
PHANTOM
 62
   135
370
    13
100
AcDbLine
 10
5842.166564
 20
5305.953135
 30
0.0
 11
5842.166564
 21
5316.953135
 31
0.0
  0
LINE
  5
110
330
1F
100
AcDbEntity
  8
1
  6
PHANTOM
 62
   135
370
    13
100
AcDbLine
 10
5852.366564
 20
5304.953135
 30
0.0
 11
5852.366564
 21
5303.953135
 31
0.0
  0
LINE
  5
111
330
1F
100
AcDbEntity
  8
1
  6
Continuous
 62
   155
370
    13
100
AcDbLine
 10
6332.666564
 20
5302.453135
 30
0.0
 11
5845.166564
 21
5302.453135
 31
0.0
  0
LINE
  5
112
330
1F
100
AcDbEntity
  8
1
  6
PHANTOM
 62
   135
370
    13
100
AcDbLine
 10
6325.466564
 20
5303.953135
 30
0.0
 11
6325.466564
 21
5304.953135
 31
0.0
  0
LINE
  5
113
330
1F
100
AcDbEntity
  8
1
  6
PHANTOM
 62
   135
370
    13
100
AcDbLine
 10
6335.666564
 20
5316.953135
 30
0.0
 11
6335.666564
 21
5305.953135
 31
0.0
  0
LINE
  5
114
330
1F
100
AcDbEntity
  8
1
  6
Continuous
 62
   155
370
    13
100
AcDbLine
 10
6332.666564
 20
5303.953135
 30
0.0
 11
5845.166564
 21
5303.953135
 31
0.0
  0
LINE
  5
115
330
1F
100
AcDbEntity
  8
1
  6
Continuous
 62
   155
370
    13
100
AcDbLine
 10
6337.166564
 20
5305.953135
 30
0.0
 11
6337.166564
 21
5316.953135
 31
0.0
  0
LINE
  5
116
330
1F
100
AcDbEntity
  8
1
  6
PHANTOM
 62
   135
370
    13
100
AcDbLine
 10
6658.31053
 20
5774.295697
 30
0.0
 11
6659.81053
 21
5774.295697
 31
0.0
  0
LINE
  5
117
330
1F
100
AcDbEntity
  8
1
  6
PHANTOM
 62
   135
370
    13
100
AcDbLine
 10
6659.81053
 20
5753.895697
 30
0.0
 11
6658.31053
 21
5753.895697
 31
0.0
  0
LINE
  5
118
330
1F
100
AcDbEntity
  8
1
  6
PHANTOM
 62
   135
370
    13
100
AcDbLine
 10
6648.51053
 20
5714.595697
 30
0.0
 11
6647.31053
 21
5714.595697
 31
0.0
  0
LINE
  5
119
330
1F
100
AcDbEntity
  8
1
  6
PHANTOM
 62
   135
370
    13
100
AcDbLine
 10
6648.51053
 20
5812.595697
 30
0.0
 11
6647.31053
 21
5812.595697
 31
0.0
  0
LINE
  5
11A
330
1F
100
AcDbEntity
  8
1
  6
PHANTOM
 62
   135
370
    13
100
AcDbLine
 10
6648.51053
 20
6064.595697
 30
0.0
 11
6647.31053
 21
6064.595697
 31
0.0
  0
LINE
  5
11B
330
1F
100
AcDbEntity
  8
1
  6
PHANTOM
 62
   135
370
    13
100
AcDbLine
 10
6658.31053
 20
6231.595697
 30
0.0
 11
6658.31053
 21
6232.595697
 31
0.0
  0
LINE
  5
11C
330
1F
100
AcDbEntity
  8
1
  6
PHANTOM
 62
   135
370
    13
100
AcDbLine
 10
6658.31053
 20
5644.595697
 30
0.0
 11
6658.31053
 21
5645.595697
 31
0.0
  0
LINE
  5
11D
330
1F
100
AcDbEntity
  8
1
  6
Continuous
 62
   155
370
    25
100
AcDbLine
 10
6643.31053
 20
5735.595697
 30
0.0
 11
6643.31053
 21
5732.595697
 31
0.0
  0
LINE
  5
11E
330
1F
100
AcDbEntity
  8
1
  6
Continuous
 62
   155
370
    25
100
AcDbLine
 10
6643.31053
 20
5732.595697
 30
0.0
 11
6643.31053
 21
5729.595697
 31
0.0
  0
LINE
  5
11F
330
1F
100
AcDbEntity
  8
1
  6
Continuous
 62
   155
370
    25
100
AcDbLine
 10
6645.31053
 20
6236.095697
 30
0.0
 11
6645.31053
 21
6231.595697
 31
0.0
  0
LINE
  5
120
330
1F
100
AcDbEntity
  8
1
  6
Continuous
 62
   155
370
    25
100
AcDbLine
 10
6659.81053
 20
5644.595697
 30
0.0
 11
6659.81053
 21
5645.595697
 31
0.0
  0
LINE
  5
121
330
1F
100
AcDbEntity
  8
1
  6
Continuous
 62
   155
370
    25
100
AcDbLine
 10
6645.31053
 20
6231.595697
 30
0.0
 11
6645.31053
 21
5645.595697
 31
0.0
  0
LINE
  5
122
330
1F
100
AcDbEntity
  8
1
  6
Continuous
 62
   155
370
    25
100
AcDbLine
 10
6645.31053
 20
5645.595697
 30
0.0
 11
6645.31053
 21
5641.095697
 31
0.0
  0
LINE
  5
123
330
1F
100
AcDbEntity
  8
1
  6
Continuous
 62
   155
370
    25
100
AcDbLine
 10
6659.81053
 20
6231.595697
 30
0.0
 11
6659.81053
 21
6232.595697
 31
0.0
  0
LINE
  5
124
330
1F
100
AcDbEntity
  8
1
  6
PHANTOM
 62
   135
370
    13
100
AcDbLine
 10
6648.51053
 20
5690.345697
 30
0.0
 11
6647.31053
 21
5690.345697
 31
0.0
  0
LINE
  5
125
330
1F
100
AcDbEntity
  8
1
  6
PHANTOM
 62
   135
370
    13
100
AcDbLine
 10
6647.31053
 20
5686.845697
 30
0.0
 11
6648.51053
 21
5686.845697
 31
0.0
  0
LINE
  5
126
330
1F
100
AcDbEntity
  8
1
  6
PHANTOM
 62
   135
370
    13
100
AcDbLine
 10
6648.51053
 20
6015.345697
 30
0.0
 11
6647.31053
 21
6015.345697
 31
0.0
  0
LINE
  5
127
330
1F
100
AcDbEntity
  8
1
  6
PHANTOM
 62
   135
370
    13
100
AcDbLine
 10
6647.31053
 20
6011.845697
 30
0.0
 11
6648.51053
 21
6011.845697
 31
0.0
  0
LINE
  5
128
330
1F
100
AcDbEntity
  8
1
  6
PHANTOM
 62
   135
370
    13
100
AcDbLine
 10
6648.51053
 20
5840.345697
 30
0.0
 11
6647.31053
 21
5840.345697
 31
0.0
  0
LINE
  5
129
330
1F
100
AcDbEntity
  8
1
  6
PHANTOM
 62
   135
370
    13
100
AcDbLine
 10
6647.31053
 20
5836.845697
 30
0.0
 11
6648.51053
 21
5836.845697
 31
0.0
  0
LINE
  5
12A
330
1F
100
AcDbEntity
  8
1
  6
PHANTOM
 62
   135
370
    13
100
AcDbLine
 10
6648.51053
 20
5890.345697
 30
0.0
 11
6647.31053
 21
5890.345697
 31
0.0
  0
LINE
  5
12B
330
1F
100
AcDbEntity
  8
1
  6
PHANTOM
 62
   135
370
    13
100
AcDbLine
 10
6647.31053
 20
5886.845697
 30
0.0
 11
6648.51053
 21
5886.845697
 31
0.0
  0
LINE
  5
12C
330
1F
100
AcDbEntity
  8
1
  6
PHANTOM
 62
   135
370
    13
100
AcDbLine
 10
6648.51053
 20
5865.345697
 30
0.0
 11
6647.31053
 21
5865.345697
 31
0.0
  0
LINE
  5
12D
330
1F
100
AcDbEntity
  8
1
  6
PHANTOM
 62
   135
370
    13
100
AcDbLine
 10
6647.31053
 20
5861.845697
 30
0.0
 11
6648.51053
 21
5861.845697
 31
0.0
  0
LINE
  5
12E
330
1F
100
AcDbEntity
  8
1
  6
PHANTOM
 62
   135
370
    13
100
AcDbLine
 10
6648.51053
 20
5940.345697
 30
0.0
 11
6647.31053
 21
5940.345697
 31
0.0
  0
LINE
  5
12F
330
1F
100
AcDbEntity
  8
1
  6
PHANTOM
 62
   135
370
    13
100
AcDbLine
 10
6647.31053
 20
5936.845697
 30
0.0
 11
6648.51053
 21
5936.845697
 31
0.0
  0
LINE
  5
130
330
1F
100
AcDbEntity
  8
1
  6
PHANTOM
 62
   135
370
    13
100
AcDbLine
 10
6648.51053
 20
5815.345697
 30
0.0
 11
6647.31053
 21
5815.345697
 31
0.0
  0
LINE
  5
131
330
1F
100
AcDbEntity
  8
1
  6
PHANTOM
 62
   135
370
    13
100
AcDbLine
 10
6647.31053
 20
5811.845697
 30
0.0
 11
6648.51053
 21
5811.845697
 31
0.0
  0
LINE
  5
132
330
1F
100
AcDbEntity
  8
1
  6
PHANTOM
 62
   135
370
    13
100
AcDbLine
 10
6648.51053
 20
5715.345697
 30
0.0
 11
6647.31053
 21
5715.345697
 31
0.0
  0
LINE
  5
133
330
1F
100
AcDbEntity
  8
1
  6
PHANTOM
 62
   135
370
    13
100
AcDbLine
 10
6647.31053
 20
5711.845697
 30
0.0
 11
6648.51053
 21
5711.845697
 31
0.0
  0
LINE
  5
134
330
1F
100
AcDbEntity
  8
1
  6
PHANTOM
 62
   135
370
    13
100
AcDbLine
 10
6648.51053
 20
5990.345697
 30
0.0
 11
6647.31053
 21
5990.345697
 31
0.0
  0
LINE
  5
135
330
1F
100
AcDbEntity
  8
1
  6
PHANTOM
 62
   135
370
    13
100
AcDbLine
 10
6647.31053
 20
5986.845697
 30
0.0
 11
6648.51053
 21
5986.845697
 31
0.0
  0
LINE
  5
136
330
1F
100
AcDbEntity
  8
1
  6
PHANTOM
 62
   135
370
    13
100
AcDbLine
 10
6648.51053
 20
5965.345697
 30
0.0
 11
6647.31053
 21
5965.345697
 31
0.0
  0
LINE
  5
137
330
1F
100
AcDbEntity
  8
1
  6
PHANTOM
 62
   135
370
    13
100
AcDbLine
 10
6647.31053
 20
5961.845697
 30
0.0
 11
6648.51053
 21
5961.845697
 31
0.0
  0
LINE
  5
138
330
1F
100
AcDbEntity
  8
1
  6
PHANTOM
 62
   135
370
    13
100
AcDbLine
 10
6648.51053
 20
5915.345697
 30
0.0
 11
6647.31053
 21
5915.345697
 31
0.0
  0
LINE
  5
139
330
1F
100
AcDbEntity
  8
1
  6
PHANTOM
 62
   135
370
    13
100
AcDbLine
 10
6647.31053
 20
5911.845697
 30
0.0
 11
6648.51053
 21
5911.845697
 31
0.0
  0
LINE
  5
13A
330
1F
100
AcDbEntity
  8
1
  6
PHANTOM
 62
   135
370
    13
100
AcDbLine
 10
6648.56053
 20
6165.345697
 30
0.0
 11
6648.56053
 21
6151.095697
 31
0.0
  0
LINE
  5
13B
330
1F
100
AcDbEntity
  8
1
  6
PHANTOM
 62
   135
370
    13
100
AcDbLine
 10
6648.56053
 20
5726.095697
 30
0.0
 11
6648.56053
 21
5711.845697
 31
0.0
  0
LINE
  5
13C
330
1F
100
AcDbEntity
  8
1
  6
PHANTOM
 62
   135
370
    13
100
AcDbLine
 10
6648.56053
 20
6206.095697
 30
0.0
 11
6648.56053
 21
6191.845697
 31
0.0
  0
LINE
  5
13D
330
1F
100
AcDbEntity
  8
1
  6
PHANTOM
 62
   135
370
    13
100
AcDbLine
 10
6648.56053
 20
5685.345697
 30
0.0
 11
6648.56053
 21
5671.095697
 31
0.0
  0
LINE
  5
13E
330
1F
100
AcDbEntity
  8
1
  6
PHANTOM
 62
   135
370
    13
100
AcDbLine
 10
6646.56053
 20
5726.095697
 30
0.0
 11
6646.56053
 21
5711.845697
 31
0.0
  0
LINE
  5
13F
330
1F
100
AcDbEntity
  8
1
  6
PHANTOM
 62
   135
370
    13
100
AcDbLine
 10
6646.56053
 20
5685.345697
 30
0.0
 11
6646.56053
 21
5671.095697
 31
0.0
  0
LINE
  5
140
330
1F
100
AcDbEntity
  8
1
  6
PHANTOM
 62
   135
370
    13
100
AcDbLine
 10
6646.56053
 20
6165.345697
 30
0.0
 11
6646.56053
 21
6151.095697
 31
0.0
  0
LINE
  5
141
330
1F
100
AcDbEntity
  8
1
  6
PHANTOM
 62
   135
370
    13
100
AcDbLine
 10
6646.56053
 20
6206.095697
 30
0.0
 11
6646.56053
 21
6191.845697
 31
0.0
  0
LINE
  5
142
330
1F
100
AcDbEntity
  8
1
  6
PHANTOM
 62
   135
370
    13
100
AcDbLine
 10
6648.51053
 20
6190.345697
 30
0.0
 11
6647.31053
 21
6190.345697
 31
0.0
  0
LINE
  5
143
330
1F
100
AcDbEntity
  8
1
  6
PHANTOM
 62
   135
370
    13
100
AcDbLine
 10
6647.31053
 20
6186.845697
 30
0.0
 11
6648.51053
 21
6186.845697
 31
0.0
  0
LINE
  5
144
330
1F
100
AcDbEntity
  8
1
  6
PHANTOM
 62
   135
370
    13
100
AcDbLine
 10
6648.51053
 20
6065.345697
 30
0.0
 11
6647.31053
 21
6065.345697
 31
0.0
  0
LINE
  5
145
330
1F
100
AcDbEntity
  8
1
  6
PHANTOM
 62
   135
370
    13
100
AcDbLine
 10
6647.31053
 20
6061.845697
 30
0.0
 11
6648.51053
 21
6061.845697
 31
0.0
  0
LINE
  5
146
330
1F
100
AcDbEntity
  8
1
  6
PHANTOM
 62
   135
370
    13
100
AcDbLine
 10
6648.51053
 20
6040.345697
 30
0.0
 11
6647.31053
 21
6040.345697
 31
0.0
  0
LINE
  5
147
330
1F
100
AcDbEntity
  8
1
  6
PHANTOM
 62
   135
370
    13
100
AcDbLine
 10
6647.31053
 20
6036.845697
 30
0.0
 11
6648.51053
 21
6036.845697
 31
0.0
  0
LINE
  5
148
330
1F
100
AcDbEntity
  8
1
  6
PHANTOM
 62
   135
370
    13
100
AcDbLine
 10
6648.51053
 20
6165.345697
 30
0.0
 11
6647.31053
 21
6165.345697
 31
0.0
  0
LINE
  5
149
330
1F
100
AcDbEntity
  8
1
  6
PHANTOM
 62
   135
370
    13
100
AcDbLine
 10
6647.31053
 20
6161.845697
 30
0.0
 11
6648.51053
 21
6161.845697
 31
0.0
  0
LINE
  5
14A
330
1F
100
AcDbEntity
  8
1
  6
PHANTOM
 62
   135
370
    13
100
AcDbLine
 10
6650.31053
 20
6219.595697
 30
0.0
 11
6650.31053
 21
5657.595697
 31
0.0
  0
LINE
  5
14B
330
1F
100
AcDbEntity
  8
1
  6
Continuous
 62
   155
370
    25
100
AcDbLine
 10
6643.31053
 20
5729.595697
 30
0.0
 11
6645.310686
 21
5729.595697
 31
0.0
  0
LINE
  5
14C
330
1F
100
AcDbEntity
  8
1
  6
PHANTOM
 62
   135
370
    13
100
AcDbLine
 10
6645.310686
 20
5729.595697
 30
0.0
 11
6658.31053
 21
5729.595697
 31
0.0
  0
LINE
  5
14D
330
1F
100
AcDbEntity
  8
1
  6
PHANTOM
 62
   135
370
    13
100
AcDbLine
 10
6658.31053
 20
5735.595697
 30
0.0
 11
6645.310686
 21
5735.595697
 31
0.0
  0
LINE
  5
14E
330
1F
100
AcDbEntity
  8
1
  6
Continuous
 62
   155
370
    25
100
AcDbLine
 10
6645.310686
 20
5735.595697
 30
0.0
 11
6643.31053
 21
5735.595697
 31
0.0
  0
LINE
  5
14F
330
1F
100
AcDbEntity
  8
1
  6
Continuous
 62
   155
370
    13
100
AcDbLine
 10
6645.31053
 20
5641.095697
 30
0.0
 11
6656.31053
 21
5641.095697
 31
0.0
  0
LINE
  5
150
330
1F
100
AcDbEntity
  8
1
  6
PHANTOM
 62
   135
370
    13
100
AcDbLine
 10
6655.570631
 20
6151.095697
 30
0.0
 11
6655.570631
 21
6165.345697
 31
0.0
  0
LINE
  5
151
330
1F
100
AcDbEntity
  8
1
  6
PHANTOM
 62
   135
370
    13
100
AcDbLine
 10
6655.570631
 20
6206.095697
 30
0.0
 11
6646.56053
 21
6206.095697
 31
0.0
  0
LINE
  5
152
330
1F
100
AcDbEntity
  8
1
  6
PHANTOM
 62
   135
370
    13
100
AcDbLine
 10
6646.56053
 20
6191.845697
 30
0.0
 11
6655.570631
 21
6191.845697
 31
0.0
  0
LINE
  5
153
330
1F
100
AcDbEntity
  8
1
  6
PHANTOM
 62
   135
370
    13
100
AcDbLine
 10
6655.570631
 20
6191.845697
 30
0.0
 11
6655.570631
 21
6206.095697
 31
0.0
  0
LINE
  5
154
330
1F
100
AcDbEntity
  8
1
  6
PHANTOM
 62
   135
370
    13
100
AcDbLine
 10
6658.31053
 20
5671.095697
 30
0.0
 11
6657.31053
 21
5671.095697
 31
0.0
  0
LINE
  5
155
330
1F
100
AcDbEntity
  8
1
  6
PHANTOM
 62
   135
370
    13
100
AcDbLine
 10
6658.31053
 20
5726.095697
 30
0.0
 11
6657.31053
 21
5726.095697
 31
0.0
  0
LINE
  5
156
330
1F
100
AcDbEntity
  8
1
  6
PHANTOM
 62
   135
370
    13
100
AcDbLine
 10
6658.31053
 20
6151.095697
 30
0.0
 11
6657.31053
 21
6151.095697
 31
0.0
  0
LINE
  5
157
330
1F
100
AcDbEntity
  8
1
  6
PHANTOM
 62
   135
370
    13
100
AcDbLine
 10
6658.31053
 20
6206.095697
 30
0.0
 11
6657.31053
 21
6206.095697
 31
0.0
  0
LINE
  5
158
330
1F
100
AcDbEntity
  8
1
  6
PHANTOM
 62
   135
370
    13
100
AcDbLine
 10
6656.31053
 20
6206.095697
 30
0.0
 11
6657.31053
 21
6206.095697
 31
0.0
  0
LINE
  5
159
330
1F
100
AcDbEntity
  8
1
  6
PHANTOM
 62
   135
370
    13
100
AcDbLine
 10
6656.31053
 20
6151.095697
 30
0.0
 11
6656.31053
 21
6206.095697
 31
0.0
  0
LINE
  5
15A
330
1F
100
AcDbEntity
  8
1
  6
PHANTOM
 62
   135
370
    13
100
AcDbLine
 10
6657.31053
 20
6151.095697
 30
0.0
 11
6656.31053
 21
6151.095697
 31
0.0
  0
LINE
  5
15B
330
1F
100
AcDbEntity
  8
1
  6
PHANTOM
 62
   135
370
    13
100
AcDbLine
 10
6656.31053
 20
5726.095697
 30
0.0
 11
6657.31053
 21
5726.095697
 31
0.0
  0
LINE
  5
15C
330
1F
100
AcDbEntity
  8
1
  6
PHANTOM
 62
   135
370
    13
100
AcDbLine
 10
6656.31053
 20
5671.095697
 30
0.0
 11
6656.31053
 21
5726.095697
 31
0.0
  0
LINE
  5
15D
330
1F
100
AcDbEntity
  8
1
  6
PHANTOM
 62
   135
370
    13
100
AcDbLine
 10
6657.31053
 20
5671.095697
 30
0.0
 11
6656.31053
 21
5671.095697
 31
0.0
  0
LINE
  5
15E
330
1F
100
AcDbEntity
  8
1
  6
PHANTOM
 62
   135
370
    13
100
AcDbLine
 10
6655.50839
 20
5668.595697
 30
0.0
 11
6650.51053
 21
5668.595697
 31
0.0
  0
LINE
  5
15F
330
1F
100
AcDbEntity
  8
1
  6
PHANTOM
 62
   135
370
    13
100
AcDbLine
 10
6655.50839
 20
6208.595697
 30
0.0
 11
6650.51053
 21
6208.595697
 31
0.0
  0
LINE
  5
160
330
1F
100
AcDbEntity
  8
1
  6
PHANTOM
 62
   135
370
    13
100
AcDbLine
 10
6650.51053
 20
5668.595697
 30
0.0
 11
6647.31053
 21
5668.595697
 31
0.0
  0
LINE
  5
161
330
1F
100
AcDbEntity
  8
1
  6
PHANTOM
 62
   135
370
    13
100
AcDbLine
 10
6647.31053
 20
6208.595697
 30
0.0
 11
6650.51053
 21
6208.595697
 31
0.0
  0
LINE
  5
162
330
1F
100
AcDbEntity
  8
1
  6
PHANTOM
 62
   135
370
    13
100
AcDbLine
 10
6657.11053
 20
5668.595697
 30
0.0
 11
6655.50839
 21
5668.595697
 31
0.0
  0
LINE
  5
163
330
1F
100
AcDbEntity
  8
1
  6
PHANTOM
 62
   135
370
    13
100
AcDbLine
 10
6655.50839
 20
6208.595697
 30
0.0
 11
6657.11053
 21
6208.595697
 31
0.0
  0
LINE
  5
164
330
1F
100
AcDbEntity
  8
1
  6
PHANTOM
 62
   135
370
    13
100
AcDbLine
 10
6659.81053
 20
6123.295697
 30
0.0
 11
6658.31053
 21
6123.295697
 31
0.0
  0
LINE
  5
165
330
1F
100
AcDbEntity
  8
1
  6
PHANTOM
 62
   135
370
    13
100
AcDbLine
 10
6658.31053
 20
6102.895697
 30
0.0
 11
6659.81053
 21
6102.895697
 31
0.0
  0
LINE
  5
166
330
1F
100
AcDbEntity
  8
1
  6
PHANTOM
 62
   135
370
    13
100
AcDbLine
 10
6659.81053
 20
6108.349909
 30
0.0
 11
6658.31053
 21
6108.349909
 31
0.0
  0
LINE
  5
167
330
1F
100
AcDbEntity
  8
1
  6
PHANTOM
 62
   135
370
    13
100
AcDbLine
 10
6658.31053
 20
6117.841485
 30
0.0
 11
6659.81053
 21
6117.841485
 31
0.0
  0
LINE
  5
168
330
1F
100
AcDbEntity
  8
1
  6
PHANTOM
 62
   135
370
    13
100
AcDbLine
 10
6657.31053
 20
5664.595697
 30
0.0
 11
6658.31053
 21
5664.595697
 31
0.0
  0
LINE
  5
169
330
1F
100
AcDbEntity
  8
1
  6
PHANTOM
 62
   135
370
    13
100
AcDbLine
 10
6657.31053
 20
6212.595697
 30
0.0
 11
6658.31053
 21
6212.595697
 31
0.0
  0
LINE
  5
16A
330
1F
100
AcDbEntity
  8
1
  6
PHANTOM
 62
   135
370
    13
100
AcDbLine
 10
6648.51053
 20
6162.595697
 30
0.0
 11
6647.31053
 21
6162.595697
 31
0.0
  0
LINE
  5
16B
330
1F
100
AcDbEntity
  8
1
  6
PHANTOM
 62
   135
370
    13
100
AcDbLine
 10
6658.31053
 20
5759.349909
 30
0.0
 11
6659.81053
 21
5759.349909
 31
0.0
  0
LINE
  5
16C
330
1F
100
AcDbEntity
  8
1
  6
PHANTOM
 62
   135
370
    13
100
AcDbLine
 10
6659.81053
 20
5768.841485
 30
0.0
 11
6658.31053
 21
5768.841485
 31
0.0
  0
LINE
  5
16D
330
1F
100
AcDbEntity
  8
1
  6
PHANTOM
 62
   135
370
    13
100
AcDbLine
 10
6647.31053
 20
6073.595697
 30
0.0
 11
6648.51053
 21
6073.595697
 31
0.0
  0
LINE
  5
16E
330
1F
100
AcDbEntity
  8
1
  6
PHANTOM
 62
   135
370
    13
100
AcDbLine
 10
6647.31053
 20
5723.595697
 30
0.0
 11
6648.51053
 21
5723.595697
 31
0.0
  0
LINE
  5
16F
330
1F
100
AcDbEntity
  8
1
  6
PHANTOM
 62
   135
370
    13
100
AcDbLine
 10
6647.31053
 20
6153.595697
 30
0.0
 11
6648.51053
 21
6153.595697
 31
0.0
  0
LINE
  5
170
330
1F
100
AcDbEntity
  8
1
  6
PHANTOM
 62
   135
370
    13
100
AcDbLine
 10
6647.31053
 20
5803.595697
 30
0.0
 11
6648.51053
 21
5803.595697
 31
0.0
  0
LINE
  5
171
330
1F
100
AcDbEntity
  8
1
  6
PHANTOM
 62
   135
370
    13
100
AcDbLine
 10
6657.31053
 20
5668.595697
 30
0.0
 11
6658.31053
 21
5668.595697
 31
0.0
  0
LINE
  5
172
330
1F
100
AcDbEntity
  8
1
  6
PHANTOM
 62
   135
370
    13
100
AcDbLine
 10
6657.31053
 20
6208.595697
 30
0.0
 11
6658.31053
 21
6208.595697
 31
0.0
  0
LINE
  5
173
330
1F
100
AcDbEntity
  8
1
  6
PHANTOM
 62
   135
370
    13
100
AcDbLine
 10
6657.11053
 20
6208.595697
 30
0.0
 11
6657.31053
 21
6208.595697
 31
0.0
  0
LINE
  5
174
330
1F
100
AcDbEntity
  8
1
  6
PHANTOM
 62
   135
370
    13
100
AcDbLine
 10
6657.11053
 20
5668.595697
 30
0.0
 11
6657.11053
 21
6208.595697
 31
0.0
  0
LINE
  5
175
330
1F
100
AcDbEntity
  8
1
  6
PHANTOM
 62
   135
370
    13
100
AcDbLine
 10
6657.31053
 20
5668.595697
 30
0.0
 11
6657.11053
 21
5668.595697
 31
0.0
  0
LINE
  5
176
330
1F
100
AcDbEntity
  8
1
  6
PHANTOM
 62
   135
370
    13
100
AcDbLine
 10
6654.875977
 20
5685.345697
 30
0.0
 11
6654.875977
 21
5671.095697
 31
0.0
  0
LINE
  5
177
330
1F
100
AcDbEntity
  8
1
  6
PHANTOM
 62
   135
370
    13
100
AcDbLine
 10
6654.875977
 20
5726.095697
 30
0.0
 11
6654.875977
 21
5711.845697
 31
0.0
  0
LINE
  5
178
330
1F
100
AcDbEntity
  8
1
  6
PHANTOM
 62
   135
370
    13
100
AcDbLine
 10
6654.875977
 20
6151.095697
 30
0.0
 11
6654.875977
 21
6165.345697
 31
0.0
  0
LINE
  5
179
330
1F
100
AcDbEntity
  8
1
  6
PHANTOM
 62
   135
370
    13
100
AcDbLine
 10
6654.875977
 20
6191.845697
 30
0.0
 11
6654.875977
 21
6206.095697
 31
0.0
  0
LINE
  5
17A
330
1F
100
AcDbEntity
  8
1
  6
PHANTOM
 62
   135
370
    13
100
AcDbLine
 10
6655.31053
 20
5726.095697
 30
0.0
 11
6655.31053
 21
5711.845697
 31
0.0
  0
LINE
  5
17B
330
1F
100
AcDbEntity
  8
1
  6
PHANTOM
 62
   135
370
    13
100
AcDbLine
 10
6655.31053
 20
5685.345697
 30
0.0
 11
6655.31053
 21
5671.095697
 31
0.0
  0
LINE
  5
17C
330
1F
100
AcDbEntity
  8
1
  6
PHANTOM
 62
   135
370
    13
100
AcDbLine
 10
6656.31053
 20
6151.095697
 30
0.0
 11
6655.570649
 21
6151.095697
 31
0.0
  0
LINE
  5
17D
330
1F
100
AcDbEntity
  8
1
  6
PHANTOM
 62
   135
370
    13
100
AcDbLine
 10
6655.570649
 20
6165.345697
 30
0.0
 11
6656.31053
 21
6165.345697
 31
0.0
  0
LINE
  5
17E
330
1F
100
AcDbEntity
  8
1
  6
PHANTOM
 62
   135
370
    13
100
AcDbLine
 10
6656.31053
 20
5726.095697
 30
0.0
 11
6655.570649
 21
5726.095697
 31
0.0
  0
LINE
  5
17F
330
1F
100
AcDbEntity
  8
1
  6
PHANTOM
 62
   135
370
    13
100
AcDbLine
 10
6655.570649
 20
5711.845697
 30
0.0
 11
6656.31053
 21
5711.845697
 31
0.0
  0
LINE
  5
180
330
1F
100
AcDbEntity
  8
1
  6
PHANTOM
 62
   135
370
    13
100
AcDbLine
 10
6656.31053
 20
5671.095697
 30
0.0
 11
6655.570649
 21
5671.095697
 31
0.0
  0
LINE
  5
181
330
1F
100
AcDbEntity
  8
1
  6
PHANTOM
 62
   135
370
    13
100
AcDbLine
 10
6655.570649
 20
5685.345697
 30
0.0
 11
6656.31053
 21
5685.345697
 31
0.0
  0
LINE
  5
182
330
1F
100
AcDbEntity
  8
1
  6
PHANTOM
 62
   135
370
    13
100
AcDbLine
 10
6656.31053
 20
6206.095697
 30
0.0
 11
6655.570649
 21
6206.095697
 31
0.0
  0
LINE
  5
183
330
1F
100
AcDbEntity
  8
1
  6
PHANTOM
 62
   135
370
    13
100
AcDbLine
 10
6655.570649
 20
6191.845697
 30
0.0
 11
6656.31053
 21
6191.845697
 31
0.0
  0
LINE
  5
184
330
1F
100
AcDbEntity
  8
1
  6
PHANTOM
 62
   135
370
    13
100
AcDbLine
 10
6655.31053
 20
6191.845697
 30
0.0
 11
6655.31053
 21
6206.095697
 31
0.0
  0
LINE
  5
185
330
1F
100
AcDbEntity
  8
1
  6
PHANTOM
 62
   135
370
    13
100
AcDbLine
 10
6655.31053
 20
6151.095697
 30
0.0
 11
6655.31053
 21
6165.345697
 31
0.0
  0
LINE
  5
186
330
1F
100
AcDbEntity
  8
1
  6
PHANTOM
 62
   135
370
    13
100
AcDbLine
 10
6653.61053
 20
6151.095697
 30
0.0
 11
6653.61053
 21
6165.345697
 31
0.0
  0
LINE
  5
187
330
1F
100
AcDbEntity
  8
1
  6
PHANTOM
 62
   135
370
    13
100
AcDbLine
 10
6653.61053
 20
5726.095697
 30
0.0
 11
6653.61053
 21
5711.845697
 31
0.0
  0
LINE
  5
188
330
1F
100
AcDbEntity
  8
1
  6
PHANTOM
 62
   135
370
    13
100
AcDbLine
 10
6653.61053
 20
6191.845697
 30
0.0
 11
6653.61053
 21
6206.095697
 31
0.0
  0
LINE
  5
189
330
1F
100
AcDbEntity
  8
1
  6
PHANTOM
 62
   135
370
    13
100
AcDbLine
 10
6653.61053
 20
5685.345697
 30
0.0
 11
6653.61053
 21
5671.095697
 31
0.0
  0
LINE
  5
18A
330
1F
100
AcDbEntity
  8
1
  6
PHANTOM
 62
   135
370
    13
100
AcDbLine
 10
6655.570631
 20
5726.095697
 30
0.0
 11
6646.56053
 21
5726.095697
 31
0.0
  0
LINE
  5
18B
330
1F
100
AcDbEntity
  8
1
  6
PHANTOM
 62
   135
370
    13
100
AcDbLine
 10
6655.570631
 20
5726.095697
 30
0.0
 11
6655.570631
 21
5711.845697
 31
0.0
  0
LINE
  5
18C
330
1F
100
AcDbEntity
  8
1
  6
PHANTOM
 62
   135
370
    13
100
AcDbLine
 10
6655.570631
 20
5671.095697
 30
0.0
 11
6646.56053
 21
5671.095697
 31
0.0
  0
LINE
  5
18D
330
1F
100
AcDbEntity
  8
1
  6
PHANTOM
 62
   135
370
    13
100
AcDbLine
 10
6655.570631
 20
5685.345697
 30
0.0
 11
6655.570631
 21
5671.095697
 31
0.0
  0
LINE
  5
18E
330
1F
100
AcDbEntity
  8
1
  6
PHANTOM
 62
   135
370
    13
100
AcDbLine
 10
6646.56053
 20
5685.345697
 30
0.0
 11
6655.570631
 21
5685.345697
 31
0.0
  0
LINE
  5
18F
330
1F
100
AcDbEntity
  8
1
  6
PHANTOM
 62
   135
370
    13
100
AcDbLine
 10
6655.570631
 20
6151.095697
 30
0.0
 11
6646.56053
 21
6151.095697
 31
0.0
  0
LINE
  5
190
330
1F
100
AcDbEntity
  8
1
  6
Continuous
 62
   155
370
    13
100
AcDbLine
 10
6659.81053
 20
6231.595697
 30
0.0
 11
6659.81053
 21
5645.595697
 31
0.0
  0
LINE
  5
191
330
1F
100
AcDbEntity
  8
1
  6
Continuous
 62
   155
370
    13
100
AcDbLine
 10
6656.31053
 20
6236.095697
 30
0.0
 11
6645.31053
 21
6236.095697
 31
0.0
  0
LINE
  5
192
330
1F
100
AcDbEntity
  8
1
  6
PHANTOM
 62
   135
370
    13
100
AcDbLine
 10
6648.51053
 20
6208.595697
 30
0.0
 11
6648.51053
 21
5668.595697
 31
0.0
  0
LINE
  5
193
330
1F
100
AcDbEntity
  8
1
  6
PHANTOM
 62
   135
370
    13
100
AcDbLine
 10
6647.31053
 20
6208.595697
 30
0.0
 11
6647.31053
 21
5668.595697
 31
0.0
  0
LINE
  5
194
330
1F
100
AcDbEntity
  8
1
  6
PHANTOM
 62
   135
370
    13
100
AcDbLine
 10
6658.31053
 20
6226.595697
 30
0.0
 11
6657.31053
 21
6226.595697
 31
0.0
  0
LINE
  5
195
330
1F
100
AcDbEntity
  8
1
  6
PHANTOM
 62
   135
370
    13
100
AcDbLine
 10
6657.31053
 20
5650.595697
 30
0.0
 11
6658.31053
 21
5650.595697
 31
0.0
  0
LINE
  5
196
330
1F
100
AcDbEntity
  8
1
  6
PHANTOM
 62
   135
370
    13
100
AcDbLine
 10
6656.31053
 20
5642.595697
 30
0.0
 11
6645.31053
 21
5642.595697
 31
0.0
  0
LINE
  5
197
330
1F
100
AcDbEntity
  8
1
  6
PHANTOM
 62
   135
370
    13
100
AcDbLine
 10
6645.31053
 20
6234.595697
 30
0.0
 11
6656.31053
 21
6234.595697
 31
0.0
  0
LINE
  5
198
330
1F
100
AcDbEntity
  8
1
  6
PHANTOM
 62
   135
370
    13
100
AcDbLine
 10
6658.31053
 20
6231.595697
 30
0.0
 11
6658.31053
 21
5645.595697
 31
0.0
  0
LINE
  5
199
330
1F
100
AcDbEntity
  8
1
  6
Continuous
 62
   155
370
    25
100
AcDbLine
 10
5348.274115
 20
5753.895697
 30
0.0
 11
5338.78254
 21
5753.895697
 31
0.0
  0
LINE
  5
19A
330
1F
100
AcDbEntity
  8
1
  6
Continuous
 62
   155
370
    25
100
AcDbLine
 10
5333.328328
 20
5759.349909
 30
0.0
 11
5333.328328
 21
5768.841485
 31
0.0
  0
LINE
  5
19B
330
1F
100
AcDbEntity
  8
1
  6
Continuous
 62
   155
370
    25
100
AcDbLine
 10
5338.78254
 20
5774.295697
 30
0.0
 11
5348.274115
 21
5774.295697
 31
0.0
  0
LINE
  5
19C
330
1F
100
AcDbEntity
  8
1
  6
Continuous
 62
   155
370
    25
100
AcDbLine
 10
5353.728328
 20
5768.841485
 30
0.0
 11
5353.728328
 21
5759.349909
 31
0.0
  0
LINE
  5
19D
330
1F
100
AcDbEntity
  8
1
  6
Continuous
 62
   155
370
    25
100
AcDbLine
 10
5365.328328
 20
6208.595697
 30
0.0
 11
5365.328328
 21
6212.595697
 31
0.0
  0
LINE
  5
19E
330
1F
100
AcDbEntity
  8
1
  6
Continuous
 62
   155
370
    25
100
AcDbLine
 10
5365.331186
 20
5668.595697
 30
0.0
 11
5365.331186
 21
6208.595697
 31
0.0
  0
LINE
  5
19F
330
1F
100
AcDbEntity
  8
1
  6
Continuous
 62
   155
370
    25
100
AcDbLine
 10
4945.028328
 20
5723.595697
 30
0.0
 11
4954.028328
 21
5714.595697
 31
0.0
  0
LINE
  5
1A0
330
1F
100
AcDbEntity
  8
1
  6
Continuous
 62
   155
370
    25
100
AcDbLine
 10
4945.028328
 20
5803.595697
 30
0.0
 11
4945.028328
 21
5723.595697
 31
0.0
  0
LINE
  5
1A1
330
1F
100
AcDbEntity
  8
1
  6
Continuous
 62
   155
370
    25
100
AcDbLine
 10
4954.028328
 20
5812.595697
 30
0.0
 11
4945.028328
 21
5803.595697
 31
0.0
  0
LINE
  5
1A2
330
1F
100
AcDbEntity
  8
1
  6
Continuous
 62
   155
370
    25
100
AcDbLine
 10
4945.028328
 20
6073.595697
 30
0.0
 11
4954.028328
 21
6064.595697
 31
0.0
  0
LINE
  5
1A3
330
1F
100
AcDbEntity
  8
1
  6
Continuous
 62
   155
370
    25
100
AcDbLine
 10
4954.028328
 20
6162.595697
 30
0.0
 11
4945.028328
 21
6153.595697
 31
0.0
  0
LINE
  5
1A4
330
1F
100
AcDbEntity
  8
1
  6
Continuous
 62
   155
370
    25
100
AcDbLine
 10
4945.028328
 20
6153.595697
 30
0.0
 11
4945.028328
 21
6073.595697
 31
0.0
  0
LINE
  5
1A5
330
1F
100
AcDbEntity
  8
1
  6
Continuous
 62
   155
370
    25
100
AcDbLine
 10
4954.028328
 20
5812.595697
 30
0.0
 11
4954.028328
 21
6064.595697
 31
0.0
  0
LINE
  5
1A6
330
1F
100
AcDbEntity
  8
1
  6
Continuous
 62
   155
370
    25
100
AcDbLine
 10
4954.028328
 20
6162.595697
 30
0.0
 11
4954.028328
 21
6208.595697
 31
0.0
  0
LINE
  5
1A7
330
1F
100
AcDbEntity
  8
1
  6
Continuous
 62
   155
370
    25
100
AcDbLine
 10
5351.528328
 20
5714.595697
 30
0.0
 11
5360.528328
 21
5723.595697
 31
0.0
  0
LINE
  5
1A8
330
1F
100
AcDbEntity
  8
1
  6
Continuous
 62
   155
370
    25
100
AcDbLine
 10
5360.528328
 20
5803.595697
 30
0.0
 11
5351.528328
 21
5812.595697
 31
0.0
  0
LINE
  5
1A9
330
1F
100
AcDbEntity
  8
1
  6
Continuous
 62
   155
370
    25
100
AcDbLine
 10
5360.528328
 20
6073.595697
 30
0.0
 11
5360.528328
 21
6153.595697
 31
0.0
  0
LINE
  5
1AA
330
1F
100
AcDbEntity
  8
1
  6
Continuous
 62
   155
370
    25
100
AcDbLine
 10
5360.528328
 20
6153.595697
 30
0.0
 11
5351.528328
 21
6162.595697
 31
0.0
  0
LINE
  5
1AB
330
1F
100
AcDbEntity
  8
1
  6
Continuous
 62
   155
370
    25
100
AcDbLine
 10
5351.528328
 20
6064.595697
 30
0.0
 11
5360.528328
 21
6073.595697
 31
0.0
  0
LINE
  5
1AC
330
1F
100
AcDbEntity
  8
1
  6
Continuous
 62
   155
370
    25
100
AcDbLine
 10
5360.528328
 20
5723.595697
 30
0.0
 11
5360.528328
 21
5803.595697
 31
0.0
  0
LINE
  5
1AD
330
1F
100
AcDbEntity
  8
1
  6
Continuous
 62
   155
370
    25
100
AcDbLine
 10
5351.528328
 20
5812.595697
 30
0.0
 11
5351.528328
 21
6064.595697
 31
0.0
  0
LINE
  5
1AE
330
1F
100
AcDbEntity
  8
1
  6
Continuous
 62
   155
370
    25
100
AcDbLine
 10
5351.528328
 20
6162.595697
 30
0.0
 11
5351.528328
 21
6208.595697
 31
0.0
  0
LINE
  5
1AF
330
1F
100
AcDbEntity
  8
1
  6
PHANTOM
 62
   135
370
    13
100
AcDbLine
 10
4898.028328
 20
5726.095697
 30
0.0
 11
4898.028328
 21
5711.845697
 31
0.0
  0
LINE
  5
1B0
330
1F
100
AcDbEntity
  8
1
  6
PHANTOM
 62
   135
370
    13
100
AcDbLine
 10
4898.028328
 20
6165.345697
 30
0.0
 11
4898.028328
 21
6151.095697
 31
0.0
  0
LINE
  5
1B1
330
1F
100
AcDbEntity
  8
1
  6
PHANTOM
 62
   135
370
    13
100
AcDbLine
 10
4898.028328
 20
6206.095697
 30
0.0
 11
4898.028328
 21
6191.845697
 31
0.0
  0
LINE
  5
1B2
330
1F
100
AcDbEntity
  8
1
  6
Continuous
 62
   155
370
    25
100
AcDbLine
 10
4928.228328
 20
5668.595697
 30
0.0
 11
4928.228328
 21
6208.595697
 31
0.0
  0
LINE
  5
1B3
330
1F
100
AcDbEntity
  8
1
  6
Continuous
 62
   155
370
    25
100
AcDbLine
 10
4906.300125
 20
6206.095697
 30
0.0
 11
4905.478298
 21
6206.095697
 31
0.0
  0
LINE
  5
1B4
330
1F
100
AcDbEntity
  8
1
  6
Continuous
 62
   155
370
    25
100
AcDbLine
 10
4906.300125
 20
6151.095697
 30
0.0
 11
4905.478298
 21
6151.095697
 31
0.0
  0
LINE
  5
1B5
330
1F
100
AcDbEntity
  8
1
  6
Continuous
 62
   155
370
    25
100
AcDbLine
 10
4906.300125
 20
5726.095697
 30
0.0
 11
4905.478298
 21
5726.095697
 31
0.0
  0
LINE
  5
1B6
330
1F
100
AcDbEntity
  8
1
  6
Continuous
 62
   155
370
    25
100
AcDbLine
 10
4906.300125
 20
5671.095697
 30
0.0
 11
4905.478298
 21
5671.095697
 31
0.0
  0
LINE
  5
1B7
330
1F
100
AcDbEntity
  8
1
  6
Continuous
 62
   155
370
    25
100
AcDbLine
 10
4896.199901
 20
5711.845697
 30
0.0
 11
4896.199901
 21
5685.345697
 31
0.0
  0
LINE
  5
1B8
330
1F
100
AcDbEntity
  8
1
  6
Continuous
 62
   155
370
    25
100
AcDbLine
 10
4896.199901
 20
6165.345697
 30
0.0
 11
4896.199901
 21
6191.845697
 31
0.0
  0
LINE
  5
1B9
330
1F
100
AcDbEntity
  8
1
  6
Continuous
 62
   155
370
    25
100
AcDbLine
 10
5364.528328
 20
6208.595697
 30
0.0
 11
5365.331186
 21
6208.595697
 31
0.0
  0
LINE
  5
1BA
330
1F
100
AcDbEntity
  8
1
  6
Continuous
 62
   155
370
    25
100
AcDbLine
 10
5365.331186
 20
5668.595697
 30
0.0
 11
5364.528328
 21
5668.595697
 31
0.0
  0
LINE
  5
1BB
330
1F
100
AcDbEntity
  8
1
  6
Continuous
 62
   155
370
    25
100
AcDbLine
 10
4939.028328
 20
6208.595697
 30
0.0
 11
4941.028328
 21
6208.595697
 31
0.0
  0
LINE
  5
1BC
330
1F
100
AcDbEntity
  8
1
  6
Continuous
 62
   155
370
    25
100
AcDbLine
 10
4941.028328
 20
5668.595697
 30
0.0
 11
4939.028328
 21
5668.595697
 31
0.0
  0
LINE
  5
1BD
330
1F
100
AcDbEntity
  8
1
  6
Continuous
 62
   155
370
    25
100
AcDbLine
 10
4896.395944
 20
5671.095697
 30
0.0
 11
4896.028328
 21
5671.095697
 31
0.0
  0
LINE
  5
1BE
330
1F
100
AcDbEntity
  8
1
  6
Continuous
 62
   155
370
    25
100
AcDbLine
 10
4896.028328
 20
5685.345697
 30
0.0
 11
4896.395944
 21
5685.345697
 31
0.0
  0
LINE
  5
1BF
330
1F
100
AcDbEntity
  8
1
  6
Continuous
 62
   155
370
    25
100
AcDbLine
 10
4896.395944
 20
5726.095697
 30
0.0
 11
4896.028328
 21
5726.095697
 31
0.0
  0
LINE
  5
1C0
330
1F
100
AcDbEntity
  8
1
  6
Continuous
 62
   155
370
    25
100
AcDbLine
 10
4896.028328
 20
5711.845697
 30
0.0
 11
4896.395944
 21
5711.845697
 31
0.0
  0
LINE
  5
1C1
330
1F
100
AcDbEntity
  8
1
  6
Continuous
 62
   155
370
    25
100
AcDbLine
 10
4896.028328
 20
6165.345697
 30
0.0
 11
4896.395944
 21
6165.345697
 31
0.0
  0
LINE
  5
1C2
330
1F
100
AcDbEntity
  8
1
  6
Continuous
 62
   155
370
    25
100
AcDbLine
 10
4896.395944
 20
6151.095697
 30
0.0
 11
4896.028328
 21
6151.095697
 31
0.0
  0
LINE
  5
1C3
330
1F
100
AcDbEntity
  8
1
  6
Continuous
 62
   155
370
    25
100
AcDbLine
 10
4896.395944
 20
6206.095697
 30
0.0
 11
4896.028328
 21
6206.095697
 31
0.0
  0
LINE
  5
1C4
330
1F
100
AcDbEntity
  8
1
  6
Continuous
 62
   155
370
    25
100
AcDbLine
 10
4896.028328
 20
6191.845697
 30
0.0
 11
4896.395944
 21
6191.845697
 31
0.0
  0
LINE
  5
1C5
330
1F
100
AcDbEntity
  8
1
  6
Continuous
 62
   155
370
    25
100
AcDbLine
 10
5365.328328
 20
5664.595697
 30
0.0
 11
5365.328328
 21
5668.595697
 31
0.0
  0
LINE
  5
1C6
330
1F
100
AcDbEntity
  8
1
  6
Continuous
 62
   155
370
    25
100
AcDbLine
 10
5379.328328
 20
6219.595697
 30
0.0
 11
5379.328328
 21
5657.595697
 31
0.0
  0
LINE
  5
1C7
330
1F
100
AcDbEntity
  8
1
  6
Continuous
 62
   155
370
    25
100
AcDbLine
 10
5365.328328
 20
5664.595697
 30
0.0
 11
5372.328328
 21
5657.595697
 31
0.0
  0
LINE
  5
1C8
330
1F
100
AcDbEntity
  8
1
  6
Continuous
 62
   155
370
    25
100
AcDbLine
 10
4920.228328
 20
5664.595697
 30
0.0
 11
5365.328328
 21
5664.595697
 31
0.0
  0
LINE
  5
1C9
330
1F
100
AcDbEntity
  8
1
  6
Continuous
 62
   155
370
    25
100
AcDbLine
 10
5372.328328
 20
5650.595697
 30
0.0
 11
4913.228328
 21
5650.595697
 31
0.0
  0
LINE
  5
1CA
330
1F
100
AcDbEntity
  8
1
  6
Continuous
 62
   155
370
    25
100
AcDbLine
 10
4913.228328
 20
5657.595697
 30
0.0
 11
4920.228328
 21
5664.595697
 31
0.0
  0
LINE
  5
1CB
330
1F
100
AcDbEntity
  8
1
  6
Continuous
 62
   155
370
    25
100
AcDbLine
 10
4920.228328
 20
6212.595697
 30
0.0
 11
4920.228328
 21
5664.595697
 31
0.0
  0
LINE
  5
1CC
330
1F
100
AcDbEntity
  8
1
  6
Continuous
 62
   155
370
    25
100
AcDbLine
 10
4906.228328
 20
6206.095697
 30
0.0
 11
4906.228328
 21
6219.595697
 31
0.0
  0
LINE
  5
1CD
330
1F
100
AcDbEntity
  8
1
  6
Continuous
 62
   155
370
    25
100
AcDbLine
 10
4906.300125
 20
6151.095697
 30
0.0
 11
4906.300125
 21
6206.095697
 31
0.0
  0
LINE
  5
1CE
330
1F
100
AcDbEntity
  8
1
  6
Continuous
 62
   155
370
    25
100
AcDbLine
 10
4906.228328
 20
5726.095697
 30
0.0
 11
4906.228328
 21
6151.095697
 31
0.0
  0
LINE
  5
1CF
330
1F
100
AcDbEntity
  8
1
  6
Continuous
 62
   155
370
    25
100
AcDbLine
 10
4906.300125
 20
5671.095697
 30
0.0
 11
4906.300125
 21
5726.095697
 31
0.0
  0
LINE
  5
1D0
330
1F
100
AcDbEntity
  8
1
  6
Continuous
 62
   155
370
    25
100
AcDbLine
 10
4906.228328
 20
5657.595697
 30
0.0
 11
4906.228328
 21
5671.095697
 31
0.0
  0
LINE
  5
1D1
330
1F
100
AcDbEntity
  8
1
  6
Continuous
 62
   155
370
    25
100
AcDbLine
 10
5365.328328
 20
6212.595697
 30
0.0
 11
5372.328328
 21
6219.595697
 31
0.0
  0
LINE
  5
1D2
330
1F
100
AcDbEntity
  8
1
  6
Continuous
 62
   155
370
    25
100
AcDbLine
 10
4913.228328
 20
6226.595697
 30
0.0
 11
5372.328328
 21
6226.595697
 31
0.0
  0
LINE
  5
1D3
330
1F
100
AcDbEntity
  8
1
  6
Continuous
 62
   155
370
    25
100
AcDbLine
 10
4913.228328
 20
6219.595697
 30
0.0
 11
4920.228328
 21
6212.595697
 31
0.0
  0
LINE
  5
1D4
330
1F
100
AcDbEntity
  8
1
  6
Continuous
 62
   155
370
    25
100
AcDbLine
 10
5365.328328
 20
6212.595697
 30
0.0
 11
4920.228328
 21
6212.595697
 31
0.0
  0
LINE
  5
1D5
330
1F
100
AcDbEntity
  8
1
  6
Continuous
 62
   155
370
    25
100
AcDbLine
 10
5386.528328
 20
5641.095697
 30
0.0
 11
4899.028328
 21
5641.095697
 31
0.0
  0
LINE
  5
1D6
330
1F
100
AcDbEntity
  8
1
  6
PHANTOM
 62
   135
370
    13
100
AcDbLine
 10
4899.028328
 20
5726.095697
 30
0.0
 11
4899.028328
 21
5671.095697
 31
0.0
  0
LINE
  5
1D7
330
1F
100
AcDbEntity
  8
1
  6
PHANTOM
 62
   135
370
    13
100
AcDbLine
 10
4899.028328
 20
6151.095697
 30
0.0
 11
4899.028328
 21
6206.095697
 31
0.0
  0
LINE
  5
1D8
330
1F
100
AcDbEntity
  8
1
  6
PHANTOM
 62
   135
370
    13
100
AcDbLine
 10
4901.430822
 20
5685.345697
 30
0.0
 11
4901.430822
 21
5671.095697
 31
0.0
  0
LINE
  5
1D9
330
1F
100
AcDbEntity
  8
1
  6
PHANTOM
 62
   135
370
    13
100
AcDbLine
 10
4901.430822
 20
5726.095697
 30
0.0
 11
4901.430822
 21
5711.845697
 31
0.0
  0
LINE
  5
1DA
330
1F
100
AcDbEntity
  8
1
  6
PHANTOM
 62
   135
370
    13
100
AcDbLine
 10
4901.430822
 20
6151.095697
 30
0.0
 11
4901.430822
 21
6165.345697
 31
0.0
  0
LINE
  5
1DB
330
1F
100
AcDbEntity
  8
1
  6
PHANTOM
 62
   135
370
    13
100
AcDbLine
 10
4901.430822
 20
6191.845697
 30
0.0
 11
4901.430822
 21
6206.095697
 31
0.0
  0
LINE
  5
1DC
330
1F
100
AcDbEntity
  8
1
  6
PHANTOM
 62
   135
370
    13
100
AcDbLine
 10
4942.228328
 20
6208.595697
 30
0.0
 11
4942.228328
 21
5668.595697
 31
0.0
  0
LINE
  5
1DD
330
1F
100
AcDbEntity
  8
1
  6
PHANTOM
 62
   135
370
    13
100
AcDbLine
 10
5363.328328
 20
5668.595697
 30
0.0
 11
5363.328328
 21
6208.595697
 31
0.0
  0
LINE
  5
1DE
330
1F
100
AcDbEntity
  8
1
  6
PHANTOM
 62
   135
370
    13
100
AcDbLine
 10
4901.828328
 20
5726.095697
 30
0.0
 11
4901.828328
 21
5711.845697
 31
0.0
  0
LINE
  5
1DF
330
1F
100
AcDbEntity
  8
1
  6
PHANTOM
 62
   135
370
    13
100
AcDbLine
 10
4901.828328
 20
6191.845697
 30
0.0
 11
4901.828328
 21
6206.095697
 31
0.0
  0
LINE
  5
1E0
330
1F
100
AcDbEntity
  8
1
  6
PHANTOM
 62
   135
370
    13
100
AcDbLine
 10
4901.828328
 20
6151.095697
 30
0.0
 11
4901.828328
 21
6165.345697
 31
0.0
  0
LINE
  5
1E1
330
1F
100
AcDbEntity
  8
1
  6
PHANTOM
 62
   135
370
    13
100
AcDbLine
 10
4901.828328
 20
5685.345697
 30
0.0
 11
4901.828328
 21
5671.095697
 31
0.0
  0
LINE
  5
1E2
330
1F
100
AcDbEntity
  8
1
  6
Continuous
 62
   155
370
    25
100
AcDbLine
 10
5348.274115
 20
6123.295697
 30
0.0
 11
5338.78254
 21
6123.295697
 31
0.0
  0
LINE
  5
1E3
330
1F
100
AcDbEntity
  8
1
  6
Continuous
 62
   155
370
    25
100
AcDbLine
 10
5353.728328
 20
6108.349909
 30
0.0
 11
5353.728328
 21
6117.841485
 31
0.0
  0
LINE
  5
1E4
330
1F
100
AcDbEntity
  8
1
  6
Continuous
 62
   155
370
    25
100
AcDbLine
 10
5338.78254
 20
6102.895697
 30
0.0
 11
5348.274115
 21
6102.895697
 31
0.0
  0
LINE
  5
1E5
330
1F
100
AcDbEntity
  8
1
  6
Continuous
 62
   155
370
    25
100
AcDbLine
 10
5333.328328
 20
6117.841485
 30
0.0
 11
5333.328328
 21
6108.349909
 31
0.0
  0
LINE
  5
1E6
330
1F
100
AcDbEntity
  8
1
  6
Continuous
 62
   155
370
    25
100
AcDbLine
 10
4939.028328
 20
6208.595697
 30
0.0
 11
4928.228328
 21
6208.595697
 31
0.0
  0
LINE
  5
1E7
330
1F
100
AcDbEntity
  8
1
  6
Continuous
 62
   155
370
    25
100
AcDbLine
 10
4939.028328
 20
5668.595697
 30
0.0
 11
4928.228328
 21
5668.595697
 31
0.0
  0
LINE
  5
1E8
330
1F
100
AcDbEntity
  8
1
  6
PHANTOM
 62
   135
370
    13
100
AcDbLine
 10
4898.028328
 20
5685.345697
 30
0.0
 11
4898.028328
 21
5671.095697
 31
0.0
  0
LINE
  5
1E9
330
1F
100
AcDbEntity
  8
1
  6
PHANTOM
 62
   135
370
    13
100
AcDbLine
 10
4903.478328
 20
5671.095697
 30
0.0
 11
4903.478328
 21
5685.345697
 31
0.0
  0
LINE
  5
1EA
330
1F
100
AcDbEntity
  8
1
  6
PHANTOM
 62
   135
370
    13
100
AcDbLine
 10
4903.478328
 20
5711.845697
 30
0.0
 11
4903.478328
 21
5726.095697
 31
0.0
  0
LINE
  5
1EB
330
1F
100
AcDbEntity
  8
1
  6
PHANTOM
 62
   135
370
    13
100
AcDbLine
 10
4903.478328
 20
6151.095697
 30
0.0
 11
4903.478328
 21
6165.345697
 31
0.0
  0
LINE
  5
1EC
330
1F
100
AcDbEntity
  8
1
  6
PHANTOM
 62
   135
370
    13
100
AcDbLine
 10
4903.478328
 20
6191.845697
 30
0.0
 11
4903.478328
 21
6206.095697
 31
0.0
  0
LINE
  5
1ED
330
1F
100
AcDbEntity
  8
1
  6
Continuous
 62
   155
370
    25
100
AcDbLine
 10
4905.478328
 20
5711.845697
 30
0.0
 11
4905.478328
 21
5726.095697
 31
0.0
  0
LINE
  5
1EE
330
1F
100
AcDbEntity
  8
1
  6
Continuous
 62
   155
370
    25
100
AcDbLine
 10
4905.478328
 20
6191.845697
 30
0.0
 11
4905.478328
 21
6206.095697
 31
0.0
  0
LINE
  5
1EF
330
1F
100
AcDbEntity
  8
1
  6
Continuous
 62
   155
370
    25
100
AcDbLine
 10
4905.478328
 20
6151.095697
 30
0.0
 11
4905.478328
 21
6165.345697
 31
0.0
  0
LINE
  5
1F0
330
1F
100
AcDbEntity
  8
1
  6
Continuous
 62
   155
370
    25
100
AcDbLine
 10
4905.478328
 20
5671.095697
 30
0.0
 11
4905.478328
 21
5685.345697
 31
0.0
  0
LINE
  5
1F1
330
1F
100
AcDbEntity
  8
1
  6
Continuous
 62
   155
370
    25
100
AcDbLine
 10
4954.028328
 20
6208.595697
 30
0.0
 11
4944.228328
 21
6208.595697
 31
0.0
  0
LINE
  5
1F2
330
1F
100
AcDbEntity
  8
1
  6
Continuous
 62
   155
370
    25
100
AcDbLine
 10
4954.028328
 20
5668.595697
 30
0.0
 11
4944.228328
 21
5668.595697
 31
0.0
  0
LINE
  5
1F3
330
1F
100
AcDbEntity
  8
1
  6
Continuous
 62
   155
370
    25
100
AcDbLine
 10
4954.028328
 20
5668.595697
 30
0.0
 11
4954.028328
 21
5714.595697
 31
0.0
  0
LINE
  5
1F4
330
1F
100
AcDbEntity
  8
1
  6
Continuous
 62
   155
370
    25
100
AcDbLine
 10
4941.028328
 20
6208.595697
 30
0.0
 11
4944.228328
 21
6208.595697
 31
0.0
  0
LINE
  5
1F5
330
1F
100
AcDbEntity
  8
1
  6
Continuous
 62
   155
370
    25
100
AcDbLine
 10
4944.228328
 20
5668.595697
 30
0.0
 11
4941.028328
 21
5668.595697
 31
0.0
  0
LINE
  5
1F6
330
1F
100
AcDbEntity
  8
1
  6
Continuous
 62
   155
370
    25
100
AcDbLine
 10
5361.328328
 20
6208.595697
 30
0.0
 11
5364.528328
 21
6208.595697
 31
0.0
  0
LINE
  5
1F7
330
1F
100
AcDbEntity
  8
1
  6
Continuous
 62
   155
370
    25
100
AcDbLine
 10
5364.528328
 20
5668.595697
 30
0.0
 11
5361.328328
 21
5668.595697
 31
0.0
  0
LINE
  5
1F8
330
1F
100
AcDbEntity
  8
1
  6
Continuous
 62
   155
370
    25
100
AcDbLine
 10
5361.328328
 20
6208.595697
 30
0.0
 11
5351.528328
 21
6208.595697
 31
0.0
  0
LINE
  5
1F9
330
1F
100
AcDbEntity
  8
1
  6
Continuous
 62
   155
370
    25
100
AcDbLine
 10
5361.328328
 20
5668.595697
 30
0.0
 11
5351.528328
 21
5668.595697
 31
0.0
  0
LINE
  5
1FA
330
1F
100
AcDbEntity
  8
1
  6
Continuous
 62
   155
370
    25
100
AcDbLine
 10
4905.478328
 20
5711.845697
 30
0.0
 11
4896.395944
 21
5711.845697
 31
0.0
  0
LINE
  5
1FB
330
1F
100
AcDbEntity
  8
1
  6
Continuous
 62
   155
370
    25
100
AcDbLine
 10
4905.478328
 20
6191.845697
 30
0.0
 11
4896.395944
 21
6191.845697
 31
0.0
  0
LINE
  5
1FC
330
1F
100
AcDbEntity
  8
1
  6
Continuous
 62
   155
370
    25
100
AcDbLine
 10
4905.478328
 20
6165.345697
 30
0.0
 11
4896.395944
 21
6165.345697
 31
0.0
  0
LINE
  5
1FD
330
1F
100
AcDbEntity
  8
1
  6
Continuous
 62
   155
370
    25
100
AcDbLine
 10
4905.478328
 20
5685.345697
 30
0.0
 11
4896.395944
 21
5685.345697
 31
0.0
  0
LINE
  5
1FE
330
1F
100
AcDbEntity
  8
1
  6
Continuous
 62
   155
370
    25
100
AcDbLine
 10
5391.028328
 20
6231.595697
 30
0.0
 11
5391.028328
 21
5645.595697
 31
0.0
  0
LINE
  5
1FF
330
1F
100
AcDbEntity
  8
1
  6
Continuous
 62
   155
370
    25
100
AcDbLine
 10
4899.028328
 20
6236.095697
 30
0.0
 11
5386.528328
 21
6236.095697
 31
0.0
  0
LINE
  5
200
330
1F
100
AcDbEntity
  8
1
  6
Continuous
 62
   155
370
    25
100
AcDbLine
 10
4896.028328
 20
5645.595697
 30
0.0
 11
4896.028328
 21
6231.595697
 31
0.0
  0
LINE
  5
201
330
1F
100
AcDbEntity
  8
1
  6
Continuous
 62
   155
370
    25
100
AcDbLine
 10
4894.528328
 20
5645.595697
 30
0.0
 11
4894.528328
 21
6231.595697
 31
0.0
  0
LINE
  5
202
330
1F
100
AcDbEntity
  8
1
  6
Continuous
 62
   155
370
    13
100
AcDbLine
 10
4941.028328
 20
5668.595697
 30
0.0
 11
4941.028328
 21
6208.595697
 31
0.0
  0
LINE
  5
203
330
1F
100
AcDbEntity
  8
1
  6
Continuous
 62
   155
370
    13
100
AcDbLine
 10
5389.528328
 20
6231.595697
 30
0.0
 11
5389.528328
 21
5645.595697
 31
0.0
  0
LINE
  5
204
330
1F
100
AcDbEntity
  8
1
  6
Continuous
 62
   155
370
    13
100
AcDbLine
 10
5364.528328
 20
6208.595697
 30
0.0
 11
5364.528328
 21
5668.595697
 31
0.0
  0
LINE
  5
205
330
1F
100
AcDbEntity
  8
1
  6
Continuous
 62
   155
370
    13
100
AcDbLine
 10
5386.528328
 20
5642.595697
 30
0.0
 11
4899.028328
 21
5642.595697
 31
0.0
  0
LINE
  5
206
330
1F
100
AcDbEntity
  8
1
  6
Continuous
 62
   155
370
    13
100
AcDbLine
 10
4899.028328
 20
6234.595697
 30
0.0
 11
5386.528328
 21
6234.595697
 31
0.0
  0
LINE
  5
207
330
1F
100
AcDbEntity
  8
1
  6
Continuous
 62
   155
370
    25
100
AcDbLine
 10
5351.528328
 20
5668.595697
 30
0.0
 11
5351.528328
 21
5714.595697
 31
0.0
  0
LINE
  5
208
330
1F
100
AcDbEntity
  8
1
  6
PHANTOM
 62
   135
370
    13
100
AcDbLine
 10
6329.866564
 20
5685.345697
 30
0.0
 11
6330.26404
 21
5685.345697
 31
0.0
  0
LINE
  5
209
330
1F
100
AcDbEntity
  8
1
  6
PHANTOM
 62
   135
370
    13
100
AcDbLine
 10
6329.866564
 20
5711.845697
 30
0.0
 11
6330.26404
 21
5711.845697
 31
0.0
  0
LINE
  5
20A
330
1F
100
AcDbEntity
  8
1
  6
PHANTOM
 62
   135
370
    13
100
AcDbLine
 10
6329.866564
 20
6165.345697
 30
0.0
 11
6330.26404
 21
6165.345697
 31
0.0
  0
LINE
  5
20B
330
1F
100
AcDbEntity
  8
1
  6
PHANTOM
 62
   135
370
    13
100
AcDbLine
 10
6329.866564
 20
6191.845697
 30
0.0
 11
6330.26404
 21
6191.845697
 31
0.0
  0
LINE
  5
20C
330
1F
100
AcDbEntity
  8
1
  6
PHANTOM
 62
   135
370
    13
100
AcDbLine
 10
6646.56053
 20
5711.845697
 30
0.0
 11
6647.31053
 21
5711.845697
 31
0.0
  0
LINE
  5
20D
330
1F
100
AcDbEntity
  8
1
  6
PHANTOM
 62
   135
370
    13
100
AcDbLine
 10
6648.51053
 20
5711.845697
 30
0.0
 11
6655.570631
 21
5711.845697
 31
0.0
  0
LINE
  5
20E
330
1F
100
AcDbEntity
  8
1
  6
PHANTOM
 62
   135
370
    13
100
AcDbLine
 10
6646.56053
 20
6165.345697
 30
0.0
 11
6647.31053
 21
6165.345697
 31
0.0
  0
LINE
  5
20F
330
1F
100
AcDbEntity
  8
1
  6
PHANTOM
 62
   135
370
    13
100
AcDbLine
 10
6648.51053
 20
6165.345697
 30
0.0
 11
6655.570631
 21
6165.345697
 31
0.0
  0
LINE
  5
210
330
1F
100
AcDbEntity
  8
1
  6
Continuous
 62
   155
370
    25
100
AcDbLine
 10
4896.395944
 20
6206.095697
 30
0.0
 11
4905.478298
 21
6206.095697
 31
0.0
  0
LINE
  5
211
330
1F
100
AcDbEntity
  8
1
  6
Continuous
 62
   155
370
    25
100
AcDbLine
 10
4896.395944
 20
6151.095697
 30
0.0
 11
4905.478298
 21
6151.095697
 31
0.0
  0
LINE
  5
212
330
1F
100
AcDbEntity
  8
1
  6
Continuous
 62
   155
370
    25
100
AcDbLine
 10
4896.395944
 20
5726.095697
 30
0.0
 11
4905.478298
 21
5726.095697
 31
0.0
  0
LINE
  5
213
330
1F
100
AcDbEntity
  8
1
  6
Continuous
 62
   155
370
    25
100
AcDbLine
 10
4896.395944
 20
5671.095697
 30
0.0
 11
4905.478298
 21
5671.095697
 31
0.0
  0
ARC
  5
214
330
1F
100
AcDbEntity
  8
1
  6
Continuous
 62
   155
370
    25
100
AcDbCircle
 10
5888.166564
 20
6113.095697
 30
0.0
 40
11.25
100
AcDbArc
 50
294.951301
 51
335.048699
  0
ARC
  5
215
330
1F
100
AcDbEntity
  8
1
  6
Continuous
 62
   155
370
    25
100
AcDbCircle
 10
5888.166564
 20
6113.095697
 30
0.0
 40
11.25
100
AcDbArc
 50
204.951301
 51
245.048699
  0
ARC
  5
216
330
1F
100
AcDbEntity
  8
1
  6
Continuous
 62
   155
370
    25
100
AcDbCircle
 10
5888.166564
 20
6113.095697
 30
0.0
 40
11.25
100
AcDbArc
 50
114.951301
 51
155.048699
  0
CIRCLE
  5
217
330
1F
100
AcDbEntity
  8
1
  6
PHANTOM
 62
   135
370
    13
100
AcDbCircle
 10
5875.166564
 20
6038.595697
 30
0.0
 40
1.75
  0
CIRCLE
  5
218
330
1F
100
AcDbEntity
  8
1
  6
PHANTOM
 62
   135
370
    13
100
AcDbCircle
 10
5875.166564
 20
6063.595697
 30
0.0
 40
1.75
  0
CIRCLE
  5
219
330
1F
100
AcDbEntity
  8
1
  6
PHANTOM
 62
   135
370
    13
100
AcDbCircle
 10
5875.166564
 20
6163.595697
 30
0.0
 40
1.75
  0
CIRCLE
  5
21A
330
1F
100
AcDbEntity
  8
1
  6
PHANTOM
 62
   135
370
    13
100
AcDbCircle
 10
5875.166564
 20
6188.595697
 30
0.0
 40
1.75
  0
CIRCLE
  5
21B
330
1F
100
AcDbEntity
  8
1
  6
PHANTOM
 62
   135
370
    13
100
AcDbCircle
 10
6282.666564
 20
6038.595697
 30
0.0
 40
1.75
  0
CIRCLE
  5
21C
330
1F
100
AcDbEntity
  8
1
  6
PHANTOM
 62
   135
370
    13
100
AcDbCircle
 10
6282.666564
 20
6063.595697
 30
0.0
 40
1.75
  0
CIRCLE
  5
21D
330
1F
100
AcDbEntity
  8
1
  6
PHANTOM
 62
   135
370
    13
100
AcDbCircle
 10
6282.666564
 20
6163.595697
 30
0.0
 40
1.75
  0
CIRCLE
  5
21E
330
1F
100
AcDbEntity
  8
1
  6
PHANTOM
 62
   135
370
    13
100
AcDbCircle
 10
6282.666564
 20
6188.595697
 30
0.0
 40
1.75
  0
ARC
  5
21F
330
1F
100
AcDbEntity
  8
1
  6
Continuous
 62
   155
370
    25
100
AcDbCircle
 10
6332.666564
 20
6231.595697
 30
0.0
 40
4.500000000005221
100
AcDbArc
 50
0.0
 51
90.0
  0
ARC
  5
220
330
1F
100
AcDbEntity
  8
1
  6
Continuous
 62
   155
370
    25
100
AcDbCircle
 10
6332.666564
 20
5645.595697
 30
0.0
 40
4.500000000000058
100
AcDbArc
 50
270.0
 51
0.0
  0
ARC
  5
221
330
1F
100
AcDbEntity
  8
1
  6
Continuous
 62
   155
370
    25
100
AcDbCircle
 10
5888.166564
 20
5764.095697
 30
0.0
 40
11.25
100
AcDbArc
 50
294.951301
 51
335.048699
  0
ARC
  5
222
330
1F
100
AcDbEntity
  8
1
  6
Continuous
 62
   155
370
    25
100
AcDbCircle
 10
5888.166564
 20
5764.095697
 30
0.0
 40
11.25
100
AcDbArc
 50
204.951301
 51
245.048699
  0
ARC
  5
223
330
1F
100
AcDbEntity
  8
1
  6
Continuous
 62
   155
370
    25
100
AcDbCircle
 10
5888.166564
 20
5764.095697
 30
0.0
 40
11.25
100
AcDbArc
 50
114.951301
 51
155.048699
  0
ARC
  5
224
330
1F
100
AcDbEntity
  8
1
  6
Continuous
 62
   155
370
    25
100
AcDbCircle
 10
5888.166564
 20
5764.095697
 30
0.0
 40
11.25
100
AcDbArc
 50
24.951301
 51
65.048699
  0
CIRCLE
  5
225
330
1F
100
AcDbEntity
  8
1
  6
PHANTOM
 62
   135
370
    13
100
AcDbCircle
 10
6282.666564
 20
5688.595697
 30
0.0
 40
1.75
  0
CIRCLE
  5
226
330
1F
100
AcDbEntity
  8
1
  6
PHANTOM
 62
   135
370
    13
100
AcDbCircle
 10
6282.666564
 20
5713.595697
 30
0.0
 40
1.75
  0
CIRCLE
  5
227
330
1F
100
AcDbEntity
  8
1
  6
PHANTOM
 62
   135
370
    13
100
AcDbCircle
 10
6282.666564
 20
5813.595697
 30
0.0
 40
1.75
  0
CIRCLE
  5
228
330
1F
100
AcDbEntity
  8
1
  6
PHANTOM
 62
   135
370
    13
100
AcDbCircle
 10
6282.666564
 20
5838.595697
 30
0.0
 40
1.75
  0
CIRCLE
  5
229
330
1F
100
AcDbEntity
  8
1
  6
PHANTOM
 62
   135
370
    13
100
AcDbCircle
 10
6282.666564
 20
5863.595697
 30
0.0
 40
1.75
  0
CIRCLE
  5
22A
330
1F
100
AcDbEntity
  8
1
  6
PHANTOM
 62
   135
370
    13
100
AcDbCircle
 10
6282.666564
 20
5888.595697
 30
0.0
 40
1.75
  0
CIRCLE
  5
22B
330
1F
100
AcDbEntity
  8
1
  6
PHANTOM
 62
   135
370
    13
100
AcDbCircle
 10
6282.666564
 20
5913.595697
 30
0.0
 40
1.75
  0
CIRCLE
  5
22C
330
1F
100
AcDbEntity
  8
1
  6
PHANTOM
 62
   135
370
    13
100
AcDbCircle
 10
6282.666564
 20
5938.595697
 30
0.0
 40
1.75
  0
CIRCLE
  5
22D
330
1F
100
AcDbEntity
  8
1
  6
PHANTOM
 62
   135
370
    13
100
AcDbCircle
 10
6282.666564
 20
5963.595697
 30
0.0
 40
1.75
  0
CIRCLE
  5
22E
330
1F
100
AcDbEntity
  8
1
  6
PHANTOM
 62
   135
370
    13
100
AcDbCircle
 10
6282.666564
 20
5988.595697
 30
0.0
 40
1.75
  0
CIRCLE
  5
22F
330
1F
100
AcDbEntity
  8
1
  6
PHANTOM
 62
   135
370
    13
100
AcDbCircle
 10
6282.666564
 20
6013.595697
 30
0.0
 40
1.75
  0
CIRCLE
  5
230
330
1F
100
AcDbEntity
  8
1
  6
PHANTOM
 62
   135
370
    13
100
AcDbCircle
 10
5875.166564
 20
5688.595697
 30
0.0
 40
1.75
  0
CIRCLE
  5
231
330
1F
100
AcDbEntity
  8
1
  6
PHANTOM
 62
   135
370
    13
100
AcDbCircle
 10
5875.166564
 20
5713.595697
 30
0.0
 40
1.75
  0
CIRCLE
  5
232
330
1F
100
AcDbEntity
  8
1
  6
PHANTOM
 62
   135
370
    13
100
AcDbCircle
 10
5875.166564
 20
5813.595697
 30
0.0
 40
1.75
  0
CIRCLE
  5
233
330
1F
100
AcDbEntity
  8
1
  6
PHANTOM
 62
   135
370
    13
100
AcDbCircle
 10
5875.166564
 20
5838.595697
 30
0.0
 40
1.75
  0
CIRCLE
  5
234
330
1F
100
AcDbEntity
  8
1
  6
PHANTOM
 62
   135
370
    13
100
AcDbCircle
 10
5875.166564
 20
5863.595697
 30
0.0
 40
1.75
  0
CIRCLE
  5
235
330
1F
100
AcDbEntity
  8
1
  6
PHANTOM
 62
   135
370
    13
100
AcDbCircle
 10
5875.166564
 20
5888.595697
 30
0.0
 40
1.75
  0
CIRCLE
  5
236
330
1F
100
AcDbEntity
  8
1
  6
PHANTOM
 62
   135
370
    13
100
AcDbCircle
 10
5875.166564
 20
5913.595697
 30
0.0
 40
1.75
  0
CIRCLE
  5
237
330
1F
100
AcDbEntity
  8
1
  6
PHANTOM
 62
   135
370
    13
100
AcDbCircle
 10
5875.166564
 20
5938.595697
 30
0.0
 40
1.75
  0
CIRCLE
  5
238
330
1F
100
AcDbEntity
  8
1
  6
PHANTOM
 62
   135
370
    13
100
AcDbCircle
 10
5875.166564
 20
5963.595697
 30
0.0
 40
1.75
  0
CIRCLE
  5
239
330
1F
100
AcDbEntity
  8
1
  6
PHANTOM
 62
   135
370
    13
100
AcDbCircle
 10
5875.166564
 20
5988.595697
 30
0.0
 40
1.75
  0
CIRCLE
  5
23A
330
1F
100
AcDbEntity
  8
1
  6
PHANTOM
 62
   135
370
    13
100
AcDbCircle
 10
5875.166564
 20
6013.595697
 30
0.0
 40
1.75
  0
ARC
  5
23B
330
1F
100
AcDbEntity
  8
1
  6
PHANTOM
 62
   135
370
    13
100
AcDbCircle
 10
5845.166564
 20
5645.595697
 30
0.0
 40
3.00000000000003
100
AcDbArc
 50
180.0
 51
270.0
  0
ARC
  5
23C
330
1F
100
AcDbEntity
  8
1
  6
PHANTOM
 62
   135
370
    13
100
AcDbCircle
 10
5845.166564
 20
6231.595697
 30
0.0
 40
3.000000000000058
100
AcDbArc
 50
90.0
 51
180.0
  0
ARC
  5
23D
330
1F
100
AcDbEntity
  8
1
  6
PHANTOM
 62
   135
370
    13
100
AcDbCircle
 10
5859.366564
 20
5657.595697
 30
0.0
 40
7.0
100
AcDbArc
 50
180.0
 51
270.0
  0
ARC
  5
23E
330
1F
100
AcDbEntity
  8
1
  6
PHANTOM
 62
   135
370
    13
100
AcDbCircle
 10
5859.366564
 20
6219.595697
 30
0.0
 40
7.0
100
AcDbArc
 50
90.0
 51
180.0
  0
CIRCLE
  5
23F
330
1F
100
AcDbEntity
  8
1
  6
PHANTOM
 62
   135
370
    13
100
AcDbCircle
 10
6270.666564
 20
5732.595697
 30
0.0
 40
3.0
  0
ARC
  5
240
330
1F
100
AcDbEntity
  8
1
  6
PHANTOM
 62
   135
370
    13
100
AcDbCircle
 10
6318.466564
 20
6219.595697
 30
0.0
 40
7.0
100
AcDbArc
 50
0.0
 51
90.0
  0
ARC
  5
241
330
1F
100
AcDbEntity
  8
1
  6
PHANTOM
 62
   135
370
    13
100
AcDbCircle
 10
6318.466564
 20
5657.595697
 30
0.0
 40
7.0
100
AcDbArc
 50
270.0
 51
0.0
  0
ARC
  5
242
330
1F
100
AcDbEntity
  8
1
  6
PHANTOM
 62
   135
370
    13
100
AcDbCircle
 10
6332.666564
 20
5645.595697
 30
0.0
 40
3.000000000000058
100
AcDbArc
 50
270.0
 51
0.0
  0
ARC
  5
243
330
1F
100
AcDbEntity
  8
1
  6
PHANTOM
 62
   135
370
    13
100
AcDbCircle
 10
6332.666564
 20
6231.595697
 30
0.0
 40
3.000000000005221
100
AcDbArc
 50
0.0
 51
90.0
  0
ARC
  5
244
330
1F
100
AcDbEntity
  8
1
  6
Continuous
 62
   155
370
    25
100
AcDbCircle
 10
5845.166564
 20
5645.595697
 30
0.0
 40
4.50000000000003
100
AcDbArc
 50
180.0
 51
270.0
  0
ARC
  5
245
330
1F
100
AcDbEntity
  8
1
  6
Continuous
 62
   155
370
    25
100
AcDbCircle
 10
5845.166564
 20
6231.595697
 30
0.0
 40
4.500000000000058
100
AcDbArc
 50
90.0
 51
180.0
  0
ARC
  5
246
330
1F
100
AcDbEntity
  8
1
  6
Continuous
 62
   155
370
    25
100
AcDbCircle
 10
5888.166564
 20
6113.095697
 30
0.0
 40
11.25
100
AcDbArc
 50
24.951301
 51
65.048699
  0
ARC
  5
247
330
1F
100
AcDbEntity
  8
1
  6
PHANTOM
 62
   135
370
    13
100
AcDbCircle
 10
6292.666564
 20
5307.153135
 30
0.0
 40
2.0
100
AcDbArc
 50
180.0
 51
270.0
  0
ARC
  5
248
330
1F
100
AcDbEntity
  8
1
  6
PHANTOM
 62
   135
370
    13
100
AcDbCircle
 10
5870.366564
 20
5311.753135
 30
0.0
 40
3.2
100
AcDbArc
 50
90.0
 51
180.0
  0
ARC
  5
249
330
1F
100
AcDbEntity
  8
1
  6
PHANTOM
 62
   135
370
    13
100
AcDbCircle
 10
5865.166564
 20
5306.755274
 30
0.0
 40
2.0
100
AcDbArc
 50
306.767631
 51
0.0
  0
ARC
  5
24A
330
1F
100
AcDbEntity
  8
1
  6
PHANTOM
 62
   135
370
    13
100
AcDbCircle
 10
5870.366564
 20
5311.753135
 30
0.0
 40
2.0
100
AcDbArc
 50
90.0
 51
180.0
  0
ARC
  5
24B
330
1F
100
AcDbEntity
  8
1
  6
PHANTOM
 62
   135
370
    13
100
AcDbCircle
 10
6318.466564
 20
5304.953135
 30
0.0
 40
7.0
100
AcDbArc
 50
0.0
 51
90.0
  0
ARC
  5
24C
330
1F
100
AcDbEntity
  8
1
  6
PHANTOM
 62
   135
370
    13
100
AcDbCircle
 10
5859.366564
 20
5304.953135
 30
0.0
 40
7.000000000000165
100
AcDbArc
 50
0.0
 51
90.0
  0
ARC
  5
24D
330
1F
100
AcDbEntity
  8
1
  6
PHANTOM
 62
   135
370
    13
100
AcDbCircle
 10
6318.466564
 20
5304.953135
 30
0.0
 40
7.000000000000104
100
AcDbArc
 50
90.0
 51
180.0
  0
ARC
  5
24E
330
1F
100
AcDbEntity
  8
1
  6
PHANTOM
 62
   135
370
    13
100
AcDbCircle
 10
5859.366564
 20
5304.953135
 30
0.0
 40
7.0
100
AcDbArc
 50
90.0
 51
180.0
  0
ARC
  5
24F
330
1F
100
AcDbEntity
  8
1
  6
PHANTOM
 62
   135
370
    13
100
AcDbCircle
 10
6333.666564
 20
5305.953135
 30
0.0
 40
2.0
100
AcDbArc
 50
270.0
 51
0.0
  0
ARC
  5
250
330
1F
100
AcDbEntity
  8
1
  6
PHANTOM
 62
   135
370
    13
100
AcDbCircle
 10
5844.166564
 20
5305.953135
 30
0.0
 40
2.0
100
AcDbArc
 50
180.0
 51
270.0
  0
ARC
  5
251
330
1F
100
AcDbEntity
  8
1
  6
Continuous
 62
   155
370
    25
100
AcDbCircle
 10
6333.666564
 20
5305.953135
 30
0.0
 40
3.5
100
AcDbArc
 50
270.0
 51
0.0
  0
ARC
  5
252
330
1F
100
AcDbEntity
  8
1
  6
Continuous
 62
   155
370
    25
100
AcDbCircle
 10
5844.166564
 20
5305.953135
 30
0.0
 40
3.5
100
AcDbArc
 50
180.0
 51
270.0
  0
ARC
  5
253
330
1F
100
AcDbEntity
  8
1
  6
PHANTOM
 62
   135
370
    13
100
AcDbCircle
 10
6332.666564
 20
5306.953135
 30
0.0
 40
3.0
100
AcDbArc
 50
270.0
 51
0.0
  0
ARC
  5
254
330
1F
100
AcDbEntity
  8
1
  6
PHANTOM
 62
   135
370
    13
100
AcDbCircle
 10
6330.766564
 20
5311.153135
 30
0.0
 40
4.55
100
AcDbArc
 50
5.043502
 51
258.591533
  0
ARC
  5
255
330
1F
100
AcDbEntity
  8
1
  6
PHANTOM
 62
   135
370
    13
100
AcDbCircle
 10
6330.766564
 20
5311.153135
 30
0.0
 40
2.55
100
AcDbArc
 50
4.692996
 51
258.635123
  0
ARC
  5
256
330
1F
100
AcDbEntity
  8
1
  6
PHANTOM
 62
   135
370
    13
100
AcDbCircle
 10
6332.666564
 20
5306.953135
 30
0.0
 40
1.0
100
AcDbArc
 50
270.0
 51
4.692996
  0
ARC
  5
257
330
1F
100
AcDbEntity
  8
1
  6
PHANTOM
 62
   135
370
    13
100
AcDbCircle
 10
6287.466564
 20
5311.753135
 30
0.0
 40
3.2
100
AcDbArc
 50
0.0
 51
90.0
  0
ARC
  5
258
330
1F
100
AcDbEntity
  8
1
  6
PHANTOM
 62
   135
370
    13
100
AcDbCircle
 10
6287.466564
 20
5311.753135
 30
0.0
 40
2.0
100
AcDbArc
 50
0.0
 51
90.0
  0
ARC
  5
259
330
1F
100
AcDbEntity
  8
1
  6
PHANTOM
 62
   135
370
    13
100
AcDbCircle
 10
6656.31053
 20
6232.595697
 30
0.0
 40
2.0
100
AcDbArc
 50
0.0
 51
90.0
  0
ARC
  5
25A
330
1F
100
AcDbEntity
  8
1
  6
PHANTOM
 62
   135
370
    13
100
AcDbCircle
 10
6656.31053
 20
5644.595697
 30
0.0
 40
2.0
100
AcDbArc
 50
270.0
 51
360.0
  0
ARC
  5
25B
330
1F
100
AcDbEntity
  8
1
  6
Continuous
 62
   155
370
    25
100
AcDbCircle
 10
6656.31053
 20
5644.595697
 30
0.0
 40
3.5
100
AcDbArc
 50
270.0
 51
0.0
  0
ARC
  5
25C
330
1F
100
AcDbEntity
  8
1
  6
Continuous
 62
   155
370
    25
100
AcDbCircle
 10
6656.31053
 20
6232.595697
 30
0.0
 40
3.5
100
AcDbArc
 50
0.0
 51
90.0
  0
ARC
  5
25D
330
1F
100
AcDbEntity
  8
1
  6
PHANTOM
 62
   135
370
    13
100
AcDbCircle
 10
6657.31053
 20
5657.595697
 30
0.0
 40
7.0
100
AcDbArc
 50
180.0
 51
270.0
  0
ARC
  5
25E
330
1F
100
AcDbEntity
  8
1
  6
PHANTOM
 62
   135
370
    13
100
AcDbCircle
 10
6657.31053
 20
5657.595697
 30
0.0
 40
7.000000000000599
100
AcDbArc
 50
90.0
 51
180.0
  0
ARC
  5
25F
330
1F
100
AcDbEntity
  8
1
  6
PHANTOM
 62
   135
370
    13
100
AcDbCircle
 10
6657.31053
 20
6219.595697
 30
0.0
 40
7.000000000000136
100
AcDbArc
 50
180.0
 51
270.0
  0
ARC
  5
260
330
1F
100
AcDbEntity
  8
1
  6
PHANTOM
 62
   135
370
    13
100
AcDbCircle
 10
6657.31053
 20
6219.595697
 30
0.0
 40
7.0
100
AcDbArc
 50
90.0
 51
180.0
  0
ARC
  5
261
330
1F
100
AcDbEntity
  8
1
  6
Continuous
 62
   155
370
    25
100
AcDbCircle
 10
5343.528328
 20
5764.095697
 30
0.0
 40
11.25
100
AcDbArc
 50
204.951301
 51
245.048699
  0
ARC
  5
262
330
1F
100
AcDbEntity
  8
1
  6
Continuous
 62
   155
370
    25
100
AcDbCircle
 10
5343.528328
 20
5764.095697
 30
0.0
 40
11.25
100
AcDbArc
 50
114.951301
 51
155.048699
  0
ARC
  5
263
330
1F
100
AcDbEntity
  8
1
  6
Continuous
 62
   155
370
    25
100
AcDbCircle
 10
5343.528328
 20
5764.095697
 30
0.0
 40
11.25
100
AcDbArc
 50
24.951301
 51
65.048699
  0
ARC
  5
264
330
1F
100
AcDbEntity
  8
1
  6
Continuous
 62
   155
370
    25
100
AcDbCircle
 10
5343.528328
 20
5764.095697
 30
0.0
 40
11.25
100
AcDbArc
 50
294.951301
 51
335.048699
  0
CIRCLE
  5
265
330
1F
100
AcDbEntity
  8
1
  6
Continuous
 62
   155
370
    25
100
AcDbCircle
 10
4949.028328
 20
5688.595697
 30
0.0
 40
1.75
  0
CIRCLE
  5
266
330
1F
100
AcDbEntity
  8
1
  6
Continuous
 62
   155
370
    25
100
AcDbCircle
 10
4949.028328
 20
5713.595697
 30
0.0
 40
1.75
  0
CIRCLE
  5
267
330
1F
100
AcDbEntity
  8
1
  6
Continuous
 62
   155
370
    25
100
AcDbCircle
 10
4949.028328
 20
5813.595697
 30
0.0
 40
1.75
  0
CIRCLE
  5
268
330
1F
100
AcDbEntity
  8
1
  6
Continuous
 62
   155
370
    25
100
AcDbCircle
 10
4949.028328
 20
5838.595697
 30
0.0
 40
1.75
  0
CIRCLE
  5
269
330
1F
100
AcDbEntity
  8
1
  6
Continuous
 62
   155
370
    25
100
AcDbCircle
 10
4949.028328
 20
5863.595697
 30
0.0
 40
1.75
  0
CIRCLE
  5
26A
330
1F
100
AcDbEntity
  8
1
  6
Continuous
 62
   155
370
    25
100
AcDbCircle
 10
4949.028328
 20
5888.595697
 30
0.0
 40
1.75
  0
CIRCLE
  5
26B
330
1F
100
AcDbEntity
  8
1
  6
Continuous
 62
   155
370
    25
100
AcDbCircle
 10
4949.028328
 20
5913.595697
 30
0.0
 40
1.75
  0
CIRCLE
  5
26C
330
1F
100
AcDbEntity
  8
1
  6
Continuous
 62
   155
370
    25
100
AcDbCircle
 10
4949.028328
 20
5938.595697
 30
0.0
 40
1.75
  0
CIRCLE
  5
26D
330
1F
100
AcDbEntity
  8
1
  6
Continuous
 62
   155
370
    25
100
AcDbCircle
 10
4949.028328
 20
5963.595697
 30
0.0
 40
1.75
  0
CIRCLE
  5
26E
330
1F
100
AcDbEntity
  8
1
  6
Continuous
 62
   155
370
    25
100
AcDbCircle
 10
4949.028328
 20
5988.595697
 30
0.0
 40
1.75
  0
ARC
  5
26F
330
1F
100
AcDbEntity
  8
1
  6
Continuous
 62
   155
370
    25
100
AcDbCircle
 10
5372.328328
 20
5657.595697
 30
0.0
 40
7.0
100
AcDbArc
 50
270.0
 51
0.0
  0
ARC
  5
270
330
1F
100
AcDbEntity
  8
1
  6
Continuous
 62
   155
370
    25
100
AcDbCircle
 10
5372.328328
 20
6219.595697
 30
0.0
 40
7.0
100
AcDbArc
 50
0.0
 51
90.0
  0
ARC
  5
271
330
1F
100
AcDbEntity
  8
1
  6
Continuous
 62
   155
370
    25
100
AcDbCircle
 10
4913.228328
 20
5657.595697
 30
0.0
 40
7.0
100
AcDbArc
 50
180.0
 51
270.0
  0
ARC
  5
272
330
1F
100
AcDbEntity
  8
1
  6
Continuous
 62
   155
370
    25
100
AcDbCircle
 10
4913.228328
 20
6219.595697
 30
0.0
 40
7.0
100
AcDbArc
 50
90.0
 51
180.0
  0
CIRCLE
  5
273
330
1F
100
AcDbEntity
  8
1
  6
Continuous
 62
   155
370
    25
100
AcDbCircle
 10
4949.028328
 20
6013.595697
 30
0.0
 40
1.75
  0
CIRCLE
  5
274
330
1F
100
AcDbEntity
  8
1
  6
Continuous
 62
   155
370
    25
100
AcDbCircle
 10
5356.528328
 20
5688.595697
 30
0.0
 40
1.75
  0
CIRCLE
  5
275
330
1F
100
AcDbEntity
  8
1
  6
Continuous
 62
   155
370
    25
100
AcDbCircle
 10
5356.528328
 20
5713.595697
 30
0.0
 40
1.75
  0
CIRCLE
  5
276
330
1F
100
AcDbEntity
  8
1
  6
Continuous
 62
   155
370
    25
100
AcDbCircle
 10
5356.528328
 20
5813.595697
 30
0.0
 40
1.75
  0
CIRCLE
  5
277
330
1F
100
AcDbEntity
  8
1
  6
Continuous
 62
   155
370
    25
100
AcDbCircle
 10
5356.528328
 20
5838.595697
 30
0.0
 40
1.75
  0
CIRCLE
  5
278
330
1F
100
AcDbEntity
  8
1
  6
Continuous
 62
   155
370
    25
100
AcDbCircle
 10
5356.528328
 20
5863.595697
 30
0.0
 40
1.75
  0
CIRCLE
  5
279
330
1F
100
AcDbEntity
  8
1
  6
Continuous
 62
   155
370
    25
100
AcDbCircle
 10
5356.528328
 20
5888.595697
 30
0.0
 40
1.75
  0
CIRCLE
  5
27A
330
1F
100
AcDbEntity
  8
1
  6
Continuous
 62
   155
370
    25
100
AcDbCircle
 10
5356.528328
 20
5913.595697
 30
0.0
 40
1.75
  0
CIRCLE
  5
27B
330
1F
100
AcDbEntity
  8
1
  6
Continuous
 62
   155
370
    25
100
AcDbCircle
 10
5356.528328
 20
5938.595697
 30
0.0
 40
1.75
  0
CIRCLE
  5
27C
330
1F
100
AcDbEntity
  8
1
  6
Continuous
 62
   155
370
    25
100
AcDbCircle
 10
5356.528328
 20
5963.595697
 30
0.0
 40
1.75
  0
CIRCLE
  5
27D
330
1F
100
AcDbEntity
  8
1
  6
Continuous
 62
   155
370
    25
100
AcDbCircle
 10
5356.528328
 20
5988.595697
 30
0.0
 40
1.75
  0
CIRCLE
  5
27E
330
1F
100
AcDbEntity
  8
1
  6
Continuous
 62
   155
370
    25
100
AcDbCircle
 10
5356.528328
 20
6013.595697
 30
0.0
 40
1.75
  0
ARC
  5
27F
330
1F
100
AcDbEntity
  8
1
  6
Continuous
 62
   155
370
    25
100
AcDbCircle
 10
5343.528328
 20
6113.095697
 30
0.0
 40
11.25
100
AcDbArc
 50
114.951301
 51
155.048699
  0
ARC
  5
280
330
1F
100
AcDbEntity
  8
1
  6
Continuous
 62
   155
370
    25
100
AcDbCircle
 10
5343.528328
 20
6113.095697
 30
0.0
 40
11.25
100
AcDbArc
 50
24.951301
 51
65.048699
  0
ARC
  5
281
330
1F
100
AcDbEntity
  8
1
  6
Continuous
 62
   155
370
    25
100
AcDbCircle
 10
5343.528328
 20
6113.095697
 30
0.0
 40
11.25
100
AcDbArc
 50
294.951301
 51
335.048699
  0
ARC
  5
282
330
1F
100
AcDbEntity
  8
1
  6
Continuous
 62
   155
370
    25
100
AcDbCircle
 10
5343.528328
 20
6113.095697
 30
0.0
 40
11.25
100
AcDbArc
 50
204.951301
 51
245.048699
  0
CIRCLE
  5
283
330
1F
100
AcDbEntity
  8
1
  6
Continuous
 62
   155
370
    25
100
AcDbCircle
 10
4949.028328
 20
6038.595697
 30
0.0
 40
1.75
  0
CIRCLE
  5
284
330
1F
100
AcDbEntity
  8
1
  6
Continuous
 62
   155
370
    25
100
AcDbCircle
 10
4949.028328
 20
6063.595697
 30
0.0
 40
1.75
  0
CIRCLE
  5
285
330
1F
100
AcDbEntity
  8
1
  6
Continuous
 62
   155
370
    25
100
AcDbCircle
 10
4949.028328
 20
6163.595697
 30
0.0
 40
1.75
  0
CIRCLE
  5
286
330
1F
100
AcDbEntity
  8
1
  6
Continuous
 62
   155
370
    25
100
AcDbCircle
 10
4949.028328
 20
6188.595697
 30
0.0
 40
1.75
  0
CIRCLE
  5
287
330
1F
100
AcDbEntity
  8
1
  6
Continuous
 62
   155
370
    25
100
AcDbCircle
 10
5356.528328
 20
6038.595697
 30
0.0
 40
1.75
  0
CIRCLE
  5
288
330
1F
100
AcDbEntity
  8
1
  6
Continuous
 62
   155
370
    25
100
AcDbCircle
 10
5356.528328
 20
6063.595697
 30
0.0
 40
1.75
  0
CIRCLE
  5
289
330
1F
100
AcDbEntity
  8
1
  6
Continuous
 62
   155
370
    25
100
AcDbCircle
 10
5356.528328
 20
6163.595697
 30
0.0
 40
1.75
  0
CIRCLE
  5
28A
330
1F
100
AcDbEntity
  8
1
  6
Continuous
 62
   155
370
    25
100
AcDbCircle
 10
5356.528328
 20
6188.595697
 30
0.0
 40
1.75
  0
ARC
  5
28B
330
1F
100
AcDbEntity
  8
1
  6
Continuous
 62
   155
370
    25
100
AcDbCircle
 10
5386.528328
 20
6231.595697
 30
0.0
 40
4.500000000000058
100
AcDbArc
 50
360.0
 51
90.0
  0
ARC
  5
28C
330
1F
100
AcDbEntity
  8
1
  6
Continuous
 62
   155
370
    25
100
AcDbCircle
 10
4899.028328
 20
5645.595697
 30
0.0
 40
4.500000000000058
100
AcDbArc
 50
180.0
 51
270.0
  0
ARC
  5
28D
330
1F
100
AcDbEntity
  8
1
  6
Continuous
 62
   155
370
    25
100
AcDbCircle
 10
4899.028328
 20
6231.595697
 30
0.0
 40
4.500000000005221
100
AcDbArc
 50
90.0
 51
180.0
  0
ARC
  5
28E
330
1F
100
AcDbEntity
  8
1
  6
Continuous
 62
   155
370
    25
100
AcDbCircle
 10
5386.528328
 20
5645.595697
 30
0.0
 40
4.50000000000003
100
AcDbArc
 50
270.0
 51
360.0
  0
CIRCLE
  5
28F
330
1F
100
AcDbEntity
  8
1
  6
Continuous
 62
   155
370
    25
100
AcDbCircle
 10
4961.028328
 20
5732.595697
 30
0.0
 40
3.0
  0
ARC
  5
290
330
1F
100
AcDbEntity
  8
1
  6
Continuous
 62
   155
370
    13
100
AcDbCircle
 10
5386.528328
 20
6231.595697
 30
0.0
 40
3.000000000000058
100
AcDbArc
 50
0.0
 51
90.0
  0
ARC
  5
291
330
1F
100
AcDbEntity
  8
1
  6
Continuous
 62
   155
370
    13
100
AcDbCircle
 10
5386.528328
 20
5645.595697
 30
0.0
 40
3.00000000000003
100
AcDbArc
 50
270.0
 51
0.0
  0
ARC
  5
292
330
1F
100
AcDbEntity
  8
1
  6
Continuous
 62
   155
370
    13
100
AcDbCircle
 10
4899.028328
 20
5645.595697
 30
0.0
 40
3.000000000000058
100
AcDbArc
 50
180.0
 51
270.0
  0
ARC
  5
293
330
1F
100
AcDbEntity
  8
1
  6
Continuous
 62
   155
370
    13
100
AcDbCircle
 10
4899.028328
 20
6231.595697
 30
0.0
 40
3.000000000005221
100
AcDbArc
 50
90.0
 51
180.0
  0
MTEXT
  5
294
330
1F
100
AcDbEntity
  8
1
  6
Continuous
 62
    35
370
    13
100
AcDbMText
 10
5896.22642
 20
7057.902266
 30
0.0
 40
70.0
 41
0.0
 46
0.0
 71
     7
 72
     5
  1
\fArial|b0|i0;\W1.1044;WEB PO6050
  7
Arial
 73
     2
 44
1.047437
  0
ENDSEC
  0
SECTION
  2
OBJECTS
  0
DICTIONARY
  5
C
330
0
100
AcDbDictionary
281
     1
  3
ACAD_DETAILVIEWSTYLE
350
2DD
  3
ACAD_GROUP
350
D
  3
ACAD_IMAGE_VARS
350
5E
  3
ACAD_LAYOUT
350
1A
  3
ACAD_MATERIAL
350
43
  3
ACAD_MLEADERSTYLE
350
5B
  3
ACAD_MLINESTYLE
350
17
  3
ACAD_PLOTSETTINGS
350
19
  3
ACAD_PLOTSTYLENAME
350
E
  3
ACAD_SCALELIST
350
47
  3
ACAD_SECTIONVIEWSTYLE
350
2DE
  3
ACAD_TABLESTYLE
350
59
  3
ACAD_VISUALSTYLE
350
2A
  3
ACDB_RECOMPOSE_DATA
350
2DA
  3
AcDbVariableDictionary
350
2A6
  0
SUN
  5
5D
330
29
100
AcDbSun
 90
        1
290
     0
 63
     7
421
 16777215
 40
1.0
291
     1
 91
  2455826
 92
 54000000
292
     0
 70
     2
 71
   256
280
     1
  0
DICTIONARY
  5
2DD
102
{ACAD_REACTORS
330
C
102
}
330
C
100
AcDbDictionary
281
     1
  0
DICTIONARY
  5
D
102
{ACAD_REACTORS
330
C
102
}
330
C
100
AcDbDictionary
281
     1
  0
RASTERVARIABLES
  5
5E
102
{ACAD_REACTORS
330
C
102
}
330
C
100
AcDbRasterVariables
 90
        0
 70
     0
 71
     1
 72
     1
  0
DICTIONARY
  5
1A
102
{ACAD_REACTORS
330
C
102
}
330
C
100
AcDbDictionary
281
     1
  3
Layout1
350
1E
  3
Layout2
350
26
  3
Model
350
22
  0
DICTIONARY
  5
43
102
{ACAD_REACTORS
330
C
102
}
330
C
100
AcDbDictionary
281
     1
  3
ByBlock
350
45
  3
ByLayer
350
44
  3
Global
350
46
  0
DICTIONARY
  5
5B
102
{ACAD_REACTORS
330
C
102
}
330
C
100
AcDbDictionary
281
     1
  3
Standard
350
5C
  0
DICTIONARY
  5
17
102
{ACAD_REACTORS
330
C
102
}
330
C
100
AcDbDictionary
281
     1
  3
Standard
350
18
  0
DICTIONARY
  5
19
102
{ACAD_REACTORS
330
C
102
}
330
C
100
AcDbDictionary
281
     1
  0
ACDBDICTIONARYWDFLT
  5
E
102
{ACAD_REACTORS
330
C
102
}
330
C
100
AcDbDictionary
281
     1
  3
Normal
350
F
100
AcDbDictionaryWithDefault
340
F
  0
DICTIONARY
  5
47
102
{ACAD_REACTORS
330
C
102
}
330
C
100
AcDbDictionary
281
     1
  3
A0
350
48
  3
A1
350
49
  3
A2
350
4A
  3
A3
350
4B
  3
A4
350
4C
  3
A5
350
4D
  3
A6
350
4E
  3
A7
350
4F
  3
A8
350
50
  3
A9
350
51
  3
B1
350
52
  3
B2
350
53
  3
B3
350
54
  3
B4
350
55
  3
B5
350
56
  3
B6
350
57
  3
B7
350
58
  0
DICTIONARY
  5
2DE
102
{ACAD_REACTORS
330
C
102
}
330
C
100
AcDbDictionary
281
     1
  0
DICTIONARY
  5
59
102
{ACAD_REACTORS
330
C
102
}
330
C
100
AcDbDictionary
281
     1
  3
Standard
350
5A
  0
DICTIONARY
  5
2A
102
{ACAD_REACTORS
330
C
102
}
330
C
100
AcDbDictionary
281
     1
  3
2dWireframe
350
2F
  3
Basic
350
32
  3
Brighten
350
36
  3
ColorChange
350
3A
  3
Conceptual
350
34
  3
Dim
350
35
  3
EdgeColorOff
350
3D
  3
Facepattern
350
39
  3
Flat
350
2B
  3
FlatWithEdges
350
2C
  3
Gouraud
350
2D
  3
GouraudWithEdges
350
2E
  3
Hidden
350
31
  3
JitterOff
350
3B
  3
Linepattern
350
38
  3
OverhangOff
350
3C
  3
Realistic
350
33
  3
Shaded
350
42
  3
Shaded with edges
350
41
  3
Shades of Gray
350
3E
  3
Sketchy
350
3F
  3
Thicken
350
37
  3
Wireframe
350
30
  3
X-Ray
350
40
  0
XRECORD
  5
2DA
102
{ACAD_REACTORS
330
C
102
}
330
C
100
AcDbXrecord
280
     1
 90
        1
330
5A
  0
DICTIONARY
  5
2A6
102
{ACAD_REACTORS
330
C
102
}
330
C
100
AcDbDictionary
281
     1
  3
CANNOSCALE
350
2A7
  3
CMLEADERSTYLE
350
2DC
  3
CTABLESTYLE
350
2DB
  0
LAYOUT
  5
1E
102
{ACAD_REACTORS
330
1A
102
}
330
1A
100
AcDbPlotSettings
  1

  2
none_device
  4

  6

 40
0.0
 41
0.0
 42
0.0
 43
0.0
 44
0.0
 45
0.0
 46
0.0
 47
0.0
 48
0.0
 49
0.0
140
0.0
141
0.0
142
1.0
143
1.0
 70
   688
 72
     0
 73
     0
 74
     5
  7

 75
    16
 76
     0
 77
     2
 78
   300
147
1.0
148
0.0
149
0.0
100
AcDbLayout
  1
Layout1
 70
     1
 71
     1
 10
-0.5
 20
-0.5
 11
5.0
 21
5.0
 12
0.0
 22
0.0
 32
0.0
 14
-0.5
 24
-0.5
 34
-0.5
 15
5.0
 25
5.0
 35
5.0
146
0.0
 13
0.0
 23
0.0
 33
0.0
 16
1.0
 26
0.0
 36
0.0
 17
0.0
 27
1.0
 37
0.0
 76
     0
330
1B
  0
LAYOUT
  5
26
102
{ACAD_REACTORS
330
1A
102
}
330
1A
100
AcDbPlotSettings
  1

  2
none_device
  4

  6

 40
0.0
 41
0.0
 42
0.0
 43
0.0
 44
0.0
 45
0.0
 46
0.0
 47
0.0
 48
0.0
 49
0.0
140
0.0
141
0.0
142
1.0
143
1.0
 70
   688
 72
     0
 73
     0
 74
     5
  7

 75
    16
 76
     0
 77
     2
 78
   300
147
1.0
148
0.0
149
0.0
100
AcDbLayout
  1
Layout2
 70
     1
 71
     2
 10
0.0
 20
0.0
 11
0.0
 21
0.0
 12
0.0
 22
0.0
 32
0.0
 14
0.0
 24
0.0
 34
0.0
 15
0.0
 25
0.0
 35
0.0
146
0.0
 13
0.0
 23
0.0
 33
0.0
 16
1.0
 26
0.0
 36
0.0
 17
0.0
 27
1.0
 37
0.0
 76
     0
330
23
  0
LAYOUT
  5
22
102
{ACAD_REACTORS
330
1A
102
}
330
1A
100
AcDbPlotSettings
  1

  2
none_device
  4
Letter_(8.50_x_11.00_Inches)
  6

 40
6.35
 41
6.35
 42
6.350005
 43
6.350005
 44
215.9
 45
279.4
 46
0.0
 47
0.0
 48
0.0
 49
0.0
140
0.0
141
0.0
142
1.0
143
1.0
 70
  1712
 72
     0
 73
     0
 74
     0
  7

 75
     0
 76
     0
 77
     2
 78
   300
147
1.0
148
0.0
149
0.0
100
AcDbLayout
  1
Model
 70
     1
 71
     0
 10
-0.5
 20
-0.5
 11
5.0
 21
5.0
 12
0.0
 22
0.0
 32
0.0
 14
-0.5
 24
-0.5
 34
-0.5
 15
5.0
 25
5.0
 35
5.0
146
0.0
 13
0.0
 23
0.0
 33
0.0
 16
1.0
 26
0.0
 36
0.0
 17
0.0
 27
1.0
 37
0.0
 76
     0
330
1F
331
29
  0
MATERIAL
  5
45
102
{ACAD_REACTORS
330
43
102
}
330
43
100
AcDbMaterial
  1
ByBlock
 72
     1
 94
      127
  0
MATERIAL
  5
44
102
{ACAD_REACTORS
330
43
102
}
330
43
100
AcDbMaterial
  1
ByLayer
 72
     1
 94
      127
  0
MATERIAL
  5
46
102
{ACAD_REACTORS
330
43
102
}
330
43
100
AcDbMaterial
  1
Global
 72
     1
 94
      127
  0
MLEADERSTYLE
  5
5C
102
{ACAD_REACTORS
330
5B
102
}
330
5B
100
AcDbMLeaderStyle
179
     2
170
     2
171
     1
172
     0
 90
        2
 40
0.0
 41
0.0
173
     1
 91
-1056964608
340
14
 92
       -2
290
     1
 42
0.09
291
     1
 43
0.36
  3
Standard
341
0
 44
0.18
300

342
11
174
     1
178
     6
175
     1
176
     0
 93
-1056964608
 45
0.18
292
     0
297
     0
 46
0.18
343
0
 94
-1056964608
 47
1.0
 49
1.0
140
1.0
293
     1
141
0.0
294
     1
177
     0
142
1.0
295
     0
296
     0
143
0.125
271
     0
272
     9
273
     9
  0
MLINESTYLE
  5
18
102
{ACAD_REACTORS
330
17
102
}
330
17
100
AcDbMlineStyle
  2
Standard
 70
     0
  3

 62
   256
 51
90.0
 52
90.0
 71
     2
 49
0.5
 62
   256
  6
BYLAYER
 49
-0.5
 62
   256
  6
BYLAYER
  0
ACDBPLACEHOLDER
  5
F
102
{ACAD_REACTORS
330
E
102
}
330
E
  0
SCALE
  5
48
102
{ACAD_REACTORS
330
47
102
}
330
47
100
AcDbScale
 70
     0
300
1:1
140
1.0
141
1.0
290
     1
  0
SCALE
  5
49
102
{ACAD_REACTORS
330
47
102
}
330
47
100
AcDbScale
 70
     0
300
1/128" = 1'-0"
140
0.007813
141
12.0
290
     0
  0
SCALE
  5
4A
102
{ACAD_REACTORS
330
47
102
}
330
47
100
AcDbScale
 70
     0
300
1/64" = 1'-0"
140
0.015625
141
12.0
290
     0
  0
SCALE
  5
4B
102
{ACAD_REACTORS
330
47
102
}
330
47
100
AcDbScale
 70
     0
300
1/32" = 1'-0"
140
0.03125
141
12.0
290
     0
  0
SCALE
  5
4C
102
{ACAD_REACTORS
330
47
102
}
330
47
100
AcDbScale
 70
     0
300
1/16" = 1'-0"
140
0.0625
141
12.0
290
     0
  0
SCALE
  5
4D
102
{ACAD_REACTORS
330
47
102
}
330
47
100
AcDbScale
 70
     0
300
3/32" = 1'-0"
140
0.09375
141
12.0
290
     0
  0
SCALE
  5
4E
102
{ACAD_REACTORS
330
47
102
}
330
47
100
AcDbScale
 70
     0
300
1/8" = 1'-0"
140
0.125
141
12.0
290
     0
  0
SCALE
  5
4F
102
{ACAD_REACTORS
330
47
102
}
330
47
100
AcDbScale
 70
     0
300
3/16" = 1'-0"
140
0.1875
141
12.0
290
     0
  0
SCALE
  5
50
102
{ACAD_REACTORS
330
47
102
}
330
47
100
AcDbScale
 70
     0
300
1/4" = 1'-0"
140
0.25
141
12.0
290
     0
  0
SCALE
  5
51
102
{ACAD_REACTORS
330
47
102
}
330
47
100
AcDbScale
 70
     0
300
3/8" = 1'-0"
140
0.375
141
12.0
290
     0
  0
SCALE
  5
52
102
{ACAD_REACTORS
330
47
102
}
330
47
100
AcDbScale
 70
     0
300
1/2" = 1'-0"
140
0.5
141
12.0
290
     0
  0
SCALE
  5
53
102
{ACAD_REACTORS
330
47
102
}
330
47
100
AcDbScale
 70
     0
300
3/4" = 1'-0"
140
0.75
141
12.0
290
     0
  0
SCALE
  5
54
102
{ACAD_REACTORS
330
47
102
}
330
47
100
AcDbScale
 70
     0
300
1" = 1'-0"
140
1.0
141
12.0
290
     0
  0
SCALE
  5
55
102
{ACAD_REACTORS
330
47
102
}
330
47
100
AcDbScale
 70
     0
300
1-1/2" = 1'-0"
140
1.5
141
12.0
290
     0
  0
SCALE
  5
56
102
{ACAD_REACTORS
330
47
102
}
330
47
100
AcDbScale
 70
     0
300
3" = 1'-0"
140
3.0
141
12.0
290
     0
  0
SCALE
  5
57
102
{ACAD_REACTORS
330
47
102
}
330
47
100
AcDbScale
 70
     0
300
6" = 1'-0"
140
6.0
141
12.0
290
     0
  0
SCALE
  5
58
102
{ACAD_REACTORS
330
47
102
}
330
47
100
AcDbScale
 70
     0
300
1'-0" = 1'-0"
140
12.0
141
12.0
290
     0
  0
TABLESTYLE
  5
5A
102
{ACAD_REACTORS
330
59
102
}
102
{ACAD_XDICTIONARY
360
2D8
102
}
330
59
100
AcDbTableStyle
  3
Standard
 70
     0
 71
     0
 40
0.06
 41
0.06
280
     0
281
     0
  7
Standard
140
0.18
170
     2
 62
     0
 63
   257
283
     0
 90
        4
 91
        0
  1

274
    -2
284
     1
 64
     0
275
    -2
285
     1
 65
     0
276
    -2
286
     1
 66
     0
277
    -2
287
     1
 67
     0
278
    -2
288
     1
 68
     0
279
    -2
289
     1
 69
     0
  7
Standard
140
0.25
170
     5
 62
     0
 63
   257
283
     0
 90
        4
 91
        0
  1

274
    -2
284
     1
 64
     0
275
    -2
285
     1
 65
     0
276
    -2
286
     1
 66
     0
277
    -2
287
     1
 67
     0
278
    -2
288
     1
 68
     0
279
    -2
289
     1
 69
     0
  7
Standard
140
0.18
170
     5
 62
     0
 63
   257
283
     0
 90
        4
 91
        0
  1

274
    -2
284
     1
 64
     0
275
    -2
285
     1
 65
     0
276
    -2
286
     1
 66
     0
277
    -2
287
     1
 67
     0
278
    -2
288
     1
 68
     0
279
    -2
289
     1
 69
     0
  0
VISUALSTYLE
  5
2F
102
{ACAD_REACTORS
330
2A
102
}
102
{ACAD_XDICTIONARY
360
2B0
102
}
330
2A
100
AcDbVisualStyle
  2
2dWireframe
 70
     4
177
     2
291
     0
 71
     0
176
     1
 72
     2
176
     1
 73
     0
176
     1
 90
        0
176
     1
 40
0.6
176
     1
 41
30.0
176
     1
 62
     5
 63
     7
421
 16777215
176
     1
 74
     1
176
     1
 91
        4
176
     1
 64
     7
176
     1
 65
   257
176
     1
 75
     1
176
     1
175
     1
176
     1
 42
1.0
176
     1
 92
        0
176
     1
 66
   257
176
     1
 43
1.0
176
     1
 76
     1
176
     1
 77
     6
176
     1
 78
     2
176
     1
 67
     7
176
     1
 79
     5
176
     1
170
     0
176
     1
171
     0
176
     1
290
     0
176
     1
 93
        1
176
     1
 44
0.0
176
     1
173
     0
176
     1
  0
VISUALSTYLE
  5
32
102
{ACAD_REACTORS
330
2A
102
}
102
{ACAD_XDICTIONARY
360
2B6
102
}
330
2A
100
AcDbVisualStyle
  2
Basic
 70
     7
177
     2
291
     1
 71
     1
176
     1
 72
     0
176
     1
 73
     1
176
     1
 90
        0
176
     1
 40
0.6
176
     1
 41
30.0
176
     1
 62
     5
 63
     7
421
 16777215
176
     1
 74
     0
176
     1
 91
        4
176
     1
 64
     7
176
     1
 65
   257
176
     1
 75
     1
176
     1
175
     1
176
     1
 42
1.0
176
     1
 92
        8
176
     1
 66
     7
176
     1
 43
1.0
176
     1
 76
     1
176
     1
 77
     6
176
     1
 78
     2
176
     1
 67
     7
176
     1
 79
     5
176
     1
170
     0
176
     1
171
     0
176
     1
290
     0
176
     1
 93
        1
176
     1
 44
0.0
176
     1
173
     0
176
     1
  0
VISUALSTYLE
  5
36
102
{ACAD_REACTORS
330
2A
102
}
102
{ACAD_XDICTIONARY
360
2BE
102
}
330
2A
100
AcDbVisualStyle
  2
Brighten
 70
    12
177
     2
291
     1
 71
     2
176
     1
 72
     2
176
     1
 73
     0
176
     1
 90
        0
176
     1
 40
0.6
176
     1
 41
30.0
176
     1
 62
     5
 63
     7
421
 16777215
176
     1
 74
     1
176
     1
 91
        4
176
     1
 64
     7
176
     1
 65
   257
176
     1
 75
     1
176
     1
175
     1
176
     1
 42
1.0
176
     1
 92
        8
176
     1
 66
     7
176
     1
 43
1.0
176
     1
 76
     1
176
     1
 77
     6
176
     1
 78
     2
176
     1
 67
     7
176
     1
 79
     5
176
     1
170
     0
176
     1
171
     0
176
     1
290
     0
176
     1
 93
        1
176
     1
 44
50.0
176
     1
173
     0
176
     1
  0
VISUALSTYLE
  5
3A
102
{ACAD_REACTORS
330
2A
102
}
102
{ACAD_XDICTIONARY
360
2C6
102
}
330
2A
100
AcDbVisualStyle
  2
ColorChange
 70
    16
177
     2
291
     1
 71
     2
176
     1
 72
     2
176
     1
 73
     3
176
     1
 90
        0
176
     1
 40
0.6
176
     1
 41
30.0
176
     1
 62
     5
 63
     8
421
  8421504
176
     1
 74
     1
176
     1
 91
        4
176
     1
 64
     7
176
     1
 65
   257
176
     1
 75
     1
176
     1
175
     1
176
     1
 42
1.0
176
     1
 92
        8
176
     1
 66
     8
424
  8421504
176
     1
 43
1.0
176
     1
 76
     1
176
     1
 77
     6
176
     1
 78
     2
176
     1
 67
     7
176
     1
 79
     5
176
     1
170
     0
176
     1
171
     0
176
     1
290
     0
176
     1
 93
        1
176
     1
 44
0.0
176
     1
173
     0
176
     1
  0
VISUALSTYLE
  5
34
102
{ACAD_REACTORS
330
2A
102
}
102
{ACAD_XDICTIONARY
360
2BA
102
}
330
2A
100
AcDbVisualStyle
  2
Conceptual
 70
     9
177
     2
291
     0
 71
     3
176
     1
 72
     2
176
     1
 73
     0
176
     1
 90
        0
176
     1
 40
0.6
176
     1
 41
30.0
176
     1
 62
     5
 63
     7
421
 16777215
176
     1
 74
     2
176
     1
 91
        2
176
     1
 64
     7
176
     1
 65
   257
176
     1
 75
     1
176
     1
175
     1
176
     1
 42
179.0
176
     1
 92
        8
176
     1
 66
     7
176
     1
 43
1.0
176
     1
 76
     1
176
     1
 77
     6
176
     1
 78
     2
176
     1
 67
     7
176
     1
 79
     3
176
     1
170
     0
176
     1
171
     0
176
     1
290
     0
176
     1
 93
        1
176
     1
 44
0.0
176
     1
173
     0
176
     1
  0
VISUALSTYLE
  5
35
102
{ACAD_REACTORS
330
2A
102
}
102
{ACAD_XDICTIONARY
360
2BC
102
}
330
2A
100
AcDbVisualStyle
  2
Dim
 70
    11
177
     2
291
     1
 71
     2
176
     1
 72
     2
176
     1
 73
     0
176
     1
 90
        0
176
     1
 40
0.6
176
     1
 41
30.0
176
     1
 62
     5
 63
     7
421
 16777215
176
     1
 74
     1
176
     1
 91
        4
176
     1
 64
     7
176
     1
 65
   257
176
     1
 75
     1
176
     1
175
     1
176
     1
 42
1.0
176
     1
 92
        8
176
     1
 66
     7
176
     1
 43
1.0
176
     1
 76
     1
176
     1
 77
     6
176
     1
 78
     2
176
     1
 67
     7
176
     1
 79
     5
176
     1
170
     0
176
     1
171
     0
176
     1
290
     0
176
     1
 93
        1
176
     1
 44
-50.0
176
     1
173
     0
176
     1
  0
VISUALSTYLE
  5
3D
102
{ACAD_REACTORS
330
2A
102
}
102
{ACAD_XDICTIONARY
360
2CC
102
}
330
2A
100
AcDbVisualStyle
  2
EdgeColorOff
 70
    22
177
     2
291
     1
 71
     2
176
     0
 72
     2
176
     0
 73
     0
176
     0
 90
        0
176
     0
 40
0.6
176
     0
 41
30.0
176
     0
 62
     5
 63
     7
421
 16777215
176
     0
 74
     1
176
     0
 91
        4
176
     0
 64
     7
176
     0
 65
   257
176
     0
 75
     1
176
     0
175
     1
176
     0
 42
1.0
176
     0
 92
        8
176
     2
 66
     7
176
     0
 43
1.0
176
     0
 76
     1
176
     0
 77
     6
176
     0
 78
     2
176
     0
 67
     7
176
     0
 79
     5
176
     0
170
     0
176
     0
171
     0
176
     0
290
     0
176
     0
 93
        1
176
     0
 44
0.0
176
     0
173
     0
176
     0
  0
VISUALSTYLE
  5
39
102
{ACAD_REACTORS
330
2A
102
}
102
{ACAD_XDICTIONARY
360
2C4
102
}
330
2A
100
AcDbVisualStyle
  2
Facepattern
 70
    15
177
     2
291
     1
 71
     2
176
     1
 72
     2
176
     1
 73
     0
176
     1
 90
        0
176
     1
 40
0.6
176
     1
 41
30.0
176
     1
 62
     5
 63
     7
421
 16777215
176
     1
 74
     1
176
     1
 91
        4
176
     1
 64
     7
176
     1
 65
   257
176
     1
 75
     1
176
     1
175
     1
176
     1
 42
1.0
176
     1
 92
        8
176
     1
 66
     7
176
     1
 43
1.0
176
     1
 76
     1
176
     1
 77
     6
176
     1
 78
     2
176
     1
 67
     7
176
     1
 79
     5
176
     1
170
     0
176
     1
171
     0
176
     1
290
     0
176
     1
 93
        1
176
     1
 44
0.0
176
     1
173
     0
176
     1
  0
VISUALSTYLE
  5
2B
102
{ACAD_REACTORS
330
2A
102
}
102
{ACAD_XDICTIONARY
360
2A8
102
}
330
2A
100
AcDbVisualStyle
  2
Flat
 70
     0
177
     2
291
     1
 71
     2
176
     1
 72
     1
176
     1
 73
     1
176
     1
 90
        2
176
     1
 40
0.6
176
     1
 41
30.0
176
     1
 62
     5
 63
     7
421
 16777215
176
     1
 74
     0
176
     1
 91
        0
176
     1
 64
     7
176
     1
 65
   257
176
     1
 75
     1
176
     1
175
     1
176
     1
 42
1.0
176
     1
 92
        8
176
     1
 66
     7
176
     1
 43
1.0
176
     1
 76
     1
176
     1
 77
     6
176
     1
 78
     2
176
     1
 67
     7
176
     1
 79
     5
176
     1
170
     0
176
     1
171
     0
176
     1
290
     0
176
     1
 93
       13
176
     1
 44
0.0
176
     1
173
     0
176
     1
  0
VISUALSTYLE
  5
2C
102
{ACAD_REACTORS
330
2A
102
}
102
{ACAD_XDICTIONARY
360
2AA
102
}
330
2A
100
AcDbVisualStyle
  2
FlatWithEdges
 70
     1
177
     2
291
     1
 71
     2
176
     1
 72
     1
176
     1
 73
     1
176
     1
 90
        2
176
     1
 40
0.6
176
     1
 41
30.0
176
     1
 62
     5
 63
     7
421
 16777215
176
     1
 74
     1
176
     1
 91
        0
176
     1
 64
     7
176
     1
 65
   257
176
     1
 75
     1
176
     1
175
     1
176
     1
 42
1.0
176
     1
 92
        0
176
     1
 66
   257
176
     1
 43
1.0
176
     1
 76
     1
176
     1
 77
     6
176
     1
 78
     2
176
     1
 67
     7
176
     1
 79
     5
176
     1
170
     0
176
     1
171
     0
176
     1
290
     0
176
     1
 93
       13
176
     1
 44
0.0
176
     1
173
     0
176
     1
  0
VISUALSTYLE
  5
2D
102
{ACAD_REACTORS
330
2A
102
}
102
{ACAD_XDICTIONARY
360
2AC
102
}
330
2A
100
AcDbVisualStyle
  2
Gouraud
 70
     2
177
     2
291
     1
 71
     2
176
     1
 72
     2
176
     1
 73
     1
176
     1
 90
        2
176
     1
 40
0.6
176
     1
 41
30.0
176
     1
 62
     5
 63
     7
421
 16777215
176
     1
 74
     0
176
     1
 91
        0
176
     1
 64
     7
176
     1
 65
   257
176
     1
 75
     1
176
     1
175
     1
176
     1
 42
1.0
176
     1
 92
        0
176
     1
 66
     7
176
     1
 43
1.0
176
     1
 76
     1
176
     1
 77
     6
176
     1
 78
     2
176
     1
 67
     7
176
     1
 79
     5
176
     1
170
     0
176
     1
171
     0
176
     1
290
     0
176
     1
 93
       13
176
     1
 44
0.0
176
     1
173
     0
176
     1
  0
VISUALSTYLE
  5
2E
102
{ACAD_REACTORS
330
2A
102
}
102
{ACAD_XDICTIONARY
360
2AE
102
}
330
2A
100
AcDbVisualStyle
  2
GouraudWithEdges
 70
     3
177
     2
291
     1
 71
     2
176
     1
 72
     2
176
     1
 73
     1
176
     1
 90
        2
176
     1
 40
0.6
176
     1
 41
30.0
176
     1
 62
     5
 63
     7
421
 16777215
176
     1
 74
     1
176
     1
 91
        0
176
     1
 64
     7
176
     1
 65
   257
176
     1
 75
     1
176
     1
175
     1
176
     1
 42
1.0
176
     1
 92
        0
176
     1
 66
   257
176
     1
 43
1.0
176
     1
 76
     1
176
     1
 77
     6
176
     1
 78
     2
176
     1
 67
     7
176
     1
 79
     5
176
     1
170
     0
176
     1
171
     0
176
     1
290
     0
176
     1
 93
       13
176
     1
 44
0.0
176
     1
173
     0
176
     1
  0
VISUALSTYLE
  5
31
102
{ACAD_REACTORS
330
2A
102
}
102
{ACAD_XDICTIONARY
360
2B4
102
}
330
2A
100
AcDbVisualStyle
  2
Hidden
 70
     6
177
     2
291
     0
 71
     1
176
     1
 72
     2
176
     1
 73
     2
176
     1
 90
        0
176
     1
 40
0.6
176
     1
 41
30.0
176
     1
 62
     5
 63
     7
421
 16777215
176
     1
 74
     2
176
     1
 91
        2
176
     1
 64
     7
176
     1
 65
   257
176
     1
 75
     2
176
     1
175
     1
176
     1
 42
40.0
176
     1
 92
        0
176
     1
 66
   257
176
     1
 43
1.0
176
     1
 76
     1
176
     1
 77
     6
176
     1
 78
     2
176
     1
 67
     7
176
     1
 79
     3
176
     1
170
     0
176
     1
171
     0
176
     1
290
     0
176
     1
 93
        1
176
     1
 44
0.0
176
     1
173
     0
176
     1
  0
VISUALSTYLE
  5
3B
102
{ACAD_REACTORS
330
2A
102
}
102
{ACAD_XDICTIONARY
360
2C8
102
}
330
2A
100
AcDbVisualStyle
  2
JitterOff
 70
    20
177
     2
291
     1
 71
     2
176
     0
 72
     2
176
     0
 73
     0
176
     0
 90
        0
176
     0
 40
0.6
176
     0
 41
30.0
176
     0
 62
     5
 63
     7
421
 16777215
176
     0
 74
     1
176
     0
 91
        4
176
     0
 64
     7
176
     0
 65
   257
176
     0
 75
     1
176
     0
175
     1
176
     0
 42
1.0
176
     0
 92
       10
176
     2
 66
     7
176
     0
 43
1.0
176
     0
 76
     1
176
     0
 77
     6
176
     0
 78
     2
176
     0
 67
     7
176
     0
 79
     5
176
     0
170
     0
176
     0
171
     0
176
     0
290
     0
176
     0
 93
        1
176
     0
 44
0.0
176
     0
173
     0
176
     0
  0
VISUALSTYLE
  5
38
102
{ACAD_REACTORS
330
2A
102
}
102
{ACAD_XDICTIONARY
360
2C2
102
}
330
2A
100
AcDbVisualStyle
  2
Linepattern
 70
    14
177
     2
291
     1
 71
     2
176
     1
 72
     2
176
     1
 73
     0
176
     1
 90
        0
176
     1
 40
0.6
176
     1
 41
30.0
176
     1
 62
     5
 63
     7
421
 16777215
176
     1
 74
     1
176
     1
 91
        4
176
     1
 64
     7
176
     1
 65
   257
176
     1
 75
     7
176
     1
175
     7
176
     1
 42
1.0
176
     1
 92
        8
176
     1
 66
     7
176
     1
 43
1.0
176
     1
 76
     1
176
     1
 77
     6
176
     1
 78
     2
176
     1
 67
     7
176
     1
 79
     5
176
     1
170
     0
176
     1
171
     0
176
     1
290
     0
176
     1
 93
        1
176
     1
 44
0.0
176
     1
173
     0
176
     1
  0
VISUALSTYLE
  5
3C
102
{ACAD_REACTORS
330
2A
102
}
102
{ACAD_XDICTIONARY
360
2CA
102
}
330
2A
100
AcDbVisualStyle
  2
OverhangOff
 70
    21
177
     2
291
     1
 71
     2
176
     0
 72
     2
176
     0
 73
     0
176
     0
 90
        0
176
     0
 40
0.6
176
     0
 41
30.0
176
     0
 62
     5
 63
     7
421
 16777215
176
     0
 74
     1
176
     0
 91
        4
176
     0
 64
     7
176
     0
 65
   257
176
     0
 75
     1
176
     0
175
     1
176
     0
 42
1.0
176
     0
 92
        9
176
     2
 66
     7
176
     0
 43
1.0
176
     0
 76
     1
176
     0
 77
     6
176
     0
 78
     2
176
     0
 67
     7
176
     0
 79
     5
176
     0
170
     0
176
     0
171
     0
176
     0
290
     0
176
     0
 93
        1
176
     0
 44
0.0
176
     0
173
     0
176
     0
  0
VISUALSTYLE
  5
33
102
{ACAD_REACTORS
330
2A
102
}
102
{ACAD_XDICTIONARY
360
2B8
102
}
330
2A
100
AcDbVisualStyle
  2
Realistic
 70
     8
177
     2
291
     0
 71
     2
176
     1
 72
     3
176
     1
 73
     0
176
     1
 90
        2
176
     1
 40
0.6
176
     1
 41
30.0
176
     1
 62
     5
 63
     7
421
 16777215
176
     1
 74
     0
176
     1
 91
        0
176
     1
 64
     7
176
     1
 65
   257
176
     1
 75
     1
176
     1
175
     1
176
     1
 42
1.0
176
     1
 92
        8
176
     1
 66
   257
176
     1
 43
1.0
176
     1
 76
     1
176
     1
 77
     6
176
     1
 78
     2
176
     1
 67
     7
176
     1
 79
     3
176
     1
170
     0
176
     1
171
     0
176
     1
290
     0
176
     1
 93
       13
176
     1
 44
0.0
176
     1
173
     0
176
     1
  0
VISUALSTYLE
  5
42
102
{ACAD_REACTORS
330
2A
102
}
102
{ACAD_XDICTIONARY
360
2D6
102
}
330
2A
100
AcDbVisualStyle
  2
Shaded
 70
    27
177
     2
291
     0
 71
     2
176
     1
 72
     2
176
     1
 73
     1
176
     1
 90
        2
176
     1
 40
0.6
176
     1
 41
30.0
176
     1
 62
     5
 63
     7
421
 16777215
176
     1
 74
     0
176
     1
 91
        4
176
     1
 64
     7
176
     1
 65
   257
176
     1
 75
     1
176
     1
175
     1
176
     1
 42
1.0
176
     1
 92
        8
176
     1
 66
   257
176
     1
 43
1.0
176
     1
 76
     1
176
     1
 77
     6
176
     1
 78
     2
176
     1
 67
     8
425
  7895160
176
     1
 79
     3
176
     1
170
     0
176
     1
171
     0
176
     1
290
     0
176
     1
 93
        5
176
     1
 44
0.0
176
     1
173
     0
176
     1
  0
VISUALSTYLE
  5
41
102
{ACAD_REACTORS
330
2A
102
}
102
{ACAD_XDICTIONARY
360
2D4
102
}
330
2A
100
AcDbVisualStyle
  2
Shaded with edges
 70
    26
177
     2
291
     0
 71
     2
176
     1
 72
     2
176
     1
 73
     1
176
     1
 90
        2
176
     1
 40
0.6
176
     1
 41
30.0
176
     1
 62
     5
 63
     7
421
 16777215
176
     1
 74
     1
176
     1
 91
       10
176
     1
 64
     7
176
     1
 65
   257
176
     1
 75
     2
176
     1
175
     1
176
     1
 42
1.0
176
     1
 92
        8
176
     1
 66
   257
176
     1
 43
1.0
176
     1
 76
     1
176
     1
 77
     6
176
     1
 78
     2
176
     1
 67
     7
176
     1
 79
     3
176
     1
170
     0
176
     1
171
     0
176
     1
290
     0
176
     1
 93
        5
176
     1
 44
0.0
176
     1
173
     0
176
     1
  0
VISUALSTYLE
  5
3E
102
{ACAD_REACTORS
330
2A
102
}
102
{ACAD_XDICTIONARY
360
2CE
102
}
330
2A
100
AcDbVisualStyle
  2
Shades of Gray
 70
    23
177
     2
291
     0
 71
     2
176
     1
 72
     2
176
     1
 73
     3
176
     1
 90
        0
176
     1
 40
0.6
176
     1
 41
30.0
176
     1
 62
     5
 63
     7
421
 16777215
176
     1
 74
     2
176
     1
 91
        2
176
     1
 64
     7
176
     1
 65
     7
176
     1
 75
     1
176
     1
175
     1
176
     1
 42
40.0
176
     1
 92
        8
176
     1
 66
     7
176
     1
 43
1.0
176
     1
 76
     1
176
     1
 77
     6
176
     1
 78
     2
176
     1
 67
     7
176
     1
 79
     3
176
     1
170
     0
176
     1
171
     0
176
     1
290
     0
176
     1
 93
        1
176
     1
 44
0.0
176
     1
173
     0
176
     1
  0
VISUALSTYLE
  5
3F
102
{ACAD_REACTORS
330
2A
102
}
102
{ACAD_XDICTIONARY
360
2D0
102
}
330
2A
100
AcDbVisualStyle
  2
Sketchy
 70
    24
177
     2
291
     0
 71
     1
176
     1
 72
     2
176
     1
 73
     2
176
     1
 90
        0
176
     1
 40
0.6
176
     1
 41
30.0
176
     1
 62
     5
 63
     7
421
 16777215
176
     1
 74
     2
176
     1
 91
        2
176
     1
 64
     7
176
     1
 65
     7
176
     1
 75
     1
176
     1
175
     1
176
     1
 42
40.0
176
     1
 92
       11
176
     1
 66
     7
176
     1
 43
1.0
176
     1
 76
     1
176
     1
 77
     6
176
     1
 78
     2
176
     1
 67
     7
176
     1
 79
     6
176
     1
170
     0
176
     1
171
     0
176
     1
290
     0
176
     1
 93
        1
176
     1
 44
0.0
176
     1
173
     0
176
     1
  0
VISUALSTYLE
  5
37
102
{ACAD_REACTORS
330
2A
102
}
102
{ACAD_XDICTIONARY
360
2C0
102
}
330
2A
100
AcDbVisualStyle
  2
Thicken
 70
    13
177
     2
291
     1
 71
     2
176
     1
 72
     2
176
     1
 73
     0
176
     1
 90
        0
176
     1
 40
0.6
176
     1
 41
30.0
176
     1
 62
     5
 63
     7
421
 16777215
176
     1
 74
     1
176
     1
 91
        4
176
     1
 64
     7
176
     1
 65
   257
176
     1
 75
     1
176
     1
175
     1
176
     1
 42
1.0
176
     1
 92
       12
176
     1
 66
     7
176
     1
 43
1.0
176
     1
 76
     1
176
     1
 77
     6
176
     1
 78
     2
176
     1
 67
     7
176
     1
 79
     5
176
     1
170
     0
176
     1
171
     0
176
     1
290
     0
176
     1
 93
        1
176
     1
 44
0.0
176
     1
173
     0
176
     1
  0
VISUALSTYLE
  5
30
102
{ACAD_REACTORS
330
2A
102
}
102
{ACAD_XDICTIONARY
360
2B2
102
}
330
2A
100
AcDbVisualStyle
  2
Wireframe
 70
     5
177
     2
291
     0
 71
     0
176
     1
 72
     2
176
     1
 73
     0
176
     1
 90
        0
176
     1
 40
0.6
176
     1
 41
30.0
176
     1
 62
     5
 63
     7
421
 16777215
176
     1
 74
     1
176
     1
 91
        4
176
     1
 64
     7
176
     1
 65
   257
176
     1
 75
     1
176
     1
175
     1
176
     1
 42
1.0
176
     1
 92
        0
176
     1
 66
   257
176
     1
 43
1.0
176
     1
 76
     1
176
     1
 77
     6
176
     1
 78
     2
176
     1
 67
     7
176
     1
 79
     3
176
     1
170
     0
176
     1
171
     0
176
     1
290
     0
176
     1
 93
        1
176
     1
 44
0.0
176
     1
173
     0
176
     1
  0
VISUALSTYLE
  5
40
102
{ACAD_REACTORS
330
2A
102
}
102
{ACAD_XDICTIONARY
360
2D2
102
}
330
2A
100
AcDbVisualStyle
  2
X-Ray
 70
    25
177
     2
291
     0
 71
     2
176
     1
 72
     2
176
     1
 73
     1
176
     1
 90
        1
176
     1
 40
0.5
176
     1
 41
30.0
176
     1
 62
     5
 63
     7
421
 16777215
176
     1
 74
     1
176
     1
 91
        0
176
     1
 64
     7
176
     1
 65
   257
176
     1
 75
     1
176
     1
175
     1
176
     1
 42
1.0
176
     1
 92
        8
176
     1
 66
     7
176
     1
 43
1.0
176
     1
 76
     1
176
     1
 77
     6
176
     1
 78
     2
176
     1
 67
     7
176
     1
 79
     3
176
     1
170
     0
176
     1
171
     0
176
     1
290
     0
176
     1
 93
       13
176
     1
 44
0.0
176
     1
173
     0
176
     1
  0
DICTIONARYVAR
  5
2A7
102
{ACAD_REACTORS
330
2A6
102
}
330
2A6
100
DictionaryVariables
280
     0
  1
1:1
  0
DICTIONARYVAR
  5
2DC
102
{ACAD_REACTORS
330
2A6
102
}
330
2A6
100
DictionaryVariables
280
     0
  1
Standard
  0
DICTIONARYVAR
  5
2DB
102
{ACAD_REACTORS
330
2A6
102
}
330
2A6
100
DictionaryVariables
280
     0
  1
Standard
  0
DICTIONARY
  5
2D8
330
5A
100
AcDbDictionary
280
     1
281
     1
  3
ACAD_ROUNDTRIP_2008_TABLESTYLE_CELLSTYLEMAP
360
2D9
  0
DICTIONARY
  5
2B0
330
2F
100
AcDbDictionary
280
     1
281
     1
  3
ACAD_XREC_ROUNDTRIP
360
2B1
  0
DICTIONARY
  5
2B6
330
32
100
AcDbDictionary
280
     1
281
     1
  3
ACAD_XREC_ROUNDTRIP
360
2B7
  0
DICTIONARY
  5
2BE
330
36
100
AcDbDictionary
280
     1
281
     1
  3
ACAD_XREC_ROUNDTRIP
360
2BF
  0
DICTIONARY
  5
2C6
330
3A
100
AcDbDictionary
280
     1
281
     1
  3
ACAD_XREC_ROUNDTRIP
360
2C7
  0
DICTIONARY
  5
2BA
330
34
100
AcDbDictionary
280
     1
281
     1
  3
ACAD_XREC_ROUNDTRIP
360
2BB
  0
DICTIONARY
  5
2BC
330
35
100
AcDbDictionary
280
     1
281
     1
  3
ACAD_XREC_ROUNDTRIP
360
2BD
  0
DICTIONARY
  5
2CC
330
3D
100
AcDbDictionary
280
     1
281
     1
  3
ACAD_XREC_ROUNDTRIP
360
2CD
  0
DICTIONARY
  5
2C4
330
39
100
AcDbDictionary
280
     1
281
     1
  3
ACAD_XREC_ROUNDTRIP
360
2C5
  0
DICTIONARY
  5
2A8
330
2B
100
AcDbDictionary
280
     1
281
     1
  3
ACAD_XREC_ROUNDTRIP
360
2A9
  0
DICTIONARY
  5
2AA
330
2C
100
AcDbDictionary
280
     1
281
     1
  3
ACAD_XREC_ROUNDTRIP
360
2AB
  0
DICTIONARY
  5
2AC
330
2D
100
AcDbDictionary
280
     1
281
     1
  3
ACAD_XREC_ROUNDTRIP
360
2AD
  0
DICTIONARY
  5
2AE
330
2E
100
AcDbDictionary
280
     1
281
     1
  3
ACAD_XREC_ROUNDTRIP
360
2AF
  0
DICTIONARY
  5
2B4
330
31
100
AcDbDictionary
280
     1
281
     1
  3
ACAD_XREC_ROUNDTRIP
360
2B5
  0
DICTIONARY
  5
2C8
330
3B
100
AcDbDictionary
280
     1
281
     1
  3
ACAD_XREC_ROUNDTRIP
360
2C9
  0
DICTIONARY
  5
2C2
330
38
100
AcDbDictionary
280
     1
281
     1
  3
ACAD_XREC_ROUNDTRIP
360
2C3
  0
DICTIONARY
  5
2CA
330
3C
100
AcDbDictionary
280
     1
281
     1
  3
ACAD_XREC_ROUNDTRIP
360
2CB
  0
DICTIONARY
  5
2B8
330
33
100
AcDbDictionary
280
     1
281
     1
  3
ACAD_XREC_ROUNDTRIP
360
2B9
  0
DICTIONARY
  5
2D6
330
42
100
AcDbDictionary
280
     1
281
     1
  3
ACAD_XREC_ROUNDTRIP
360
2D7
  0
DICTIONARY
  5
2D4
330
41
100
AcDbDictionary
280
     1
281
     1
  3
ACAD_XREC_ROUNDTRIP
360
2D5
  0
DICTIONARY
  5
2CE
330
3E
100
AcDbDictionary
280
     1
281
     1
  3
ACAD_XREC_ROUNDTRIP
360
2CF
  0
DICTIONARY
  5
2D0
330
3F
100
AcDbDictionary
280
     1
281
     1
  3
ACAD_XREC_ROUNDTRIP
360
2D1
  0
DICTIONARY
  5
2C0
330
37
100
AcDbDictionary
280
     1
281
     1
  3
ACAD_XREC_ROUNDTRIP
360
2C1
  0
DICTIONARY
  5
2B2
330
30
100
AcDbDictionary
280
     1
281
     1
  3
ACAD_XREC_ROUNDTRIP
360
2B3
  0
DICTIONARY
  5
2D2
330
40
100
AcDbDictionary
280
     1
281
     1
  3
ACAD_XREC_ROUNDTRIP
360
2D3
  0
CELLSTYLEMAP
  5
2D9
102
{ACAD_REACTORS
330
2D8
102
}
330
2D8
100
AcDbCellStyleMap
 90
        3
300
CELLSTYLE
  1
TABLEFORMAT_BEGIN
 90
        5
170
     1
 91
        0
 92
    32768
 62
   257
 93
        1
300
CONTENTFORMAT
  1
CONTENTFORMAT_BEGIN
 90
        0
 91
        0
 92
        4
 93
        0
300

 40
0.0
140
1.0
 94
        5
 62
     0
340
11
144
0.25
309
CONTENTFORMAT_END
171
     1
301
MARGIN
  1
CELLMARGIN_BEGIN
 40
0.06
 40
0.06
 40
0.06
 40
0.06
 40
0.06
 40
0.06
309
CELLMARGIN_END
 94
        6
 95
        1
302
GRIDFORMAT
  1
GRIDFORMAT_BEGIN
 90
        0
 91
        1
 62
     0
 92
       -2
340
14
 93
        0
 40
0.045
309
GRIDFORMAT_END
 95
        2
302
GRIDFORMAT
  1
GRIDFORMAT_BEGIN
 90
        0
 91
        1
 62
     0
 92
       -2
340
14
 93
        0
 40
0.045
309
GRIDFORMAT_END
 95
        4
302
GRIDFORMAT
  1
GRIDFORMAT_BEGIN
 90
        0
 91
        1
 62
     0
 92
       -2
340
14
 93
        0
 40
0.045
309
GRIDFORMAT_END
 95
        8
302
GRIDFORMAT
  1
GRIDFORMAT_BEGIN
 90
        0
 91
        1
 62
     0
 92
       -2
340
14
 93
        0
 40
0.045
309
GRIDFORMAT_END
 95
       16
302
GRIDFORMAT
  1
GRIDFORMAT_BEGIN
 90
        0
 91
        1
 62
     0
 92
       -2
340
14
 93
        0
 40
0.045
309
GRIDFORMAT_END
 95
       32
302
GRIDFORMAT
  1
GRIDFORMAT_BEGIN
 90
        0
 91
        1
 62
     0
 92
       -2
340
14
 93
        0
 40
0.045
309
GRIDFORMAT_END
309
TABLEFORMAT_END
  1
CELLSTYLE_BEGIN
 90
        1
 91
        1
300
_TITLE
309
CELLSTYLE_END
300
CELLSTYLE
  1
TABLEFORMAT_BEGIN
 90
        5
170
     1
 91
        0
 92
        0
 62
   257
 93
        1
300
CONTENTFORMAT
  1
CONTENTFORMAT_BEGIN
 90
        0
 91
        0
 92
        4
 93
        0
300

 40
0.0
140
1.0
 94
        5
 62
     0
340
11
144
0.18
309
CONTENTFORMAT_END
171
     1
301
MARGIN
  1
CELLMARGIN_BEGIN
 40
0.06
 40
0.06
 40
0.06
 40
0.06
 40
0.06
 40
0.06
309
CELLMARGIN_END
 94
        6
 95
        1
302
GRIDFORMAT
  1
GRIDFORMAT_BEGIN
 90
        0
 91
        1
 62
     0
 92
       -2
340
14
 93
        0
 40
0.045
309
GRIDFORMAT_END
 95
        2
302
GRIDFORMAT
  1
GRIDFORMAT_BEGIN
 90
        0
 91
        1
 62
     0
 92
       -2
340
14
 93
        0
 40
0.045
309
GRIDFORMAT_END
 95
        4
302
GRIDFORMAT
  1
GRIDFORMAT_BEGIN
 90
        0
 91
        1
 62
     0
 92
       -2
340
14
 93
        0
 40
0.045
309
GRIDFORMAT_END
 95
        8
302
GRIDFORMAT
  1
GRIDFORMAT_BEGIN
 90
        0
 91
        1
 62
     0
 92
       -2
340
14
 93
        0
 40
0.045
309
GRIDFORMAT_END
 95
       16
302
GRIDFORMAT
  1
GRIDFORMAT_BEGIN
 90
        0
 91
        1
 62
     0
 92
       -2
340
14
 93
        0
 40
0.045
309
GRIDFORMAT_END
 95
       32
302
GRIDFORMAT
  1
GRIDFORMAT_BEGIN
 90
        0
 91
        1
 62
     0
 92
       -2
340
14
 93
        0
 40
0.045
309
GRIDFORMAT_END
309
TABLEFORMAT_END
  1
CELLSTYLE_BEGIN
 90
        2
 91
        1
300
_HEADER
309
CELLSTYLE_END
300
CELLSTYLE
  1
TABLEFORMAT_BEGIN
 90
        5
170
     1
 91
        0
 92
        0
 62
   257
 93
        1
300
CONTENTFORMAT
  1
CONTENTFORMAT_BEGIN
 90
        0
 91
        0
 92
        4
 93
        0
300

 40
0.0
140
1.0
 94
        2
 62
     0
340
11
144
0.18
309
CONTENTFORMAT_END
171
     1
301
MARGIN
  1
CELLMARGIN_BEGIN
 40
0.06
 40
0.06
 40
0.06
 40
0.06
 40
0.06
 40
0.06
309
CELLMARGIN_END
 94
        6
 95
        1
302
GRIDFORMAT
  1
GRIDFORMAT_BEGIN
 90
        0
 91
        1
 62
     0
 92
       -2
340
14
 93
        0
 40
0.045
309
GRIDFORMAT_END
 95
        2
302
GRIDFORMAT
  1
GRIDFORMAT_BEGIN
 90
        0
 91
        1
 62
     0
 92
       -2
340
14
 93
        0
 40
0.045
309
GRIDFORMAT_END
 95
        4
302
GRIDFORMAT
  1
GRIDFORMAT_BEGIN
 90
        0
 91
        1
 62
     0
 92
       -2
340
14
 93
        0
 40
0.045
309
GRIDFORMAT_END
 95
        8
302
GRIDFORMAT
  1
GRIDFORMAT_BEGIN
 90
        0
 91
        1
 62
     0
 92
       -2
340
14
 93
        0
 40
0.045
309
GRIDFORMAT_END
 95
       16
302
GRIDFORMAT
  1
GRIDFORMAT_BEGIN
 90
        0
 91
        1
 62
     0
 92
       -2
340
14
 93
        0
 40
0.045
309
GRIDFORMAT_END
 95
       32
302
GRIDFORMAT
  1
GRIDFORMAT_BEGIN
 90
        0
 91
        1
 62
     0
 92
       -2
340
14
 93
        0
 40
0.045
309
GRIDFORMAT_END
309
TABLEFORMAT_END
  1
CELLSTYLE_BEGIN
 90
        3
 91
        2
300
_DATA
309
CELLSTYLE_END
  0
XRECORD
  5
2B1
102
{ACAD_REACTORS
330
2B0
102
}
330
2B0
100
AcDbXrecord
280
     1
102
RTVSPost2010Prop28
280
     1
102
RTVSPost2010PropOp28
 70
     1
102
RTVSPost2010Prop29
280
     1
102
RTVSPost2010PropOp29
 70
     1
102
RTVSPost2010Prop30
280
     0
102
RTVSPost2010PropOp30
 70
     1
102
RTVSPost2010Prop31
280
     0
102
RTVSPost2010PropOp31
 70
     1
102
RTVSPost2010Prop32
280
     0
102
RTVSPost2010PropOp32
 70
     1
102
RTVSPost2010Prop33
280
     0
102
RTVSPost2010PropOp33
 70
     1
102
RTVSPost2010Prop34
280
     0
102
RTVSPost2010PropOp34
 70
     1
102
RTVSPost2010Prop35
280
     0
102
RTVSPost2010PropOp35
 70
     1
102
RTVSPost2010Prop36
280
     0
102
RTVSPost2010PropOp36
 70
     1
102
RTVSPost2010Prop37
 90
       50
102
RTVSPost2010PropOp37
 70
     1
102
RTVSPost2010Prop38
140
0.0
102
RTVSPost2010PropOp38
 70
     1
102
RTVSPost2010Prop39
140
1.0
102
RTVSPost2010PropOp39
 70
     1
102
RTVSPost2010Prop40
 90
        0
102
RTVSPost2010PropOp40
 70
     1
102
RTVSPost2010Prop41ColorIndex
 90
       18
102
RTVSPost2010Prop41ColorRGB
 90
        0
102
RTVSPost2010PropOp41
 70
     1
102
RTVSPost2010Prop42
 90
       50
102
RTVSPost2010PropOp42
 70
     1
102
RTVSPost2010Prop43
 90
        3
102
RTVSPost2010PropOp43
 70
     1
102
RTVSPost2010Prop44ColorIndex
 90
        5
102
RTVSPost2010Prop44ColorRGB
 90
      255
102
RTVSPost2010PropOp44
 70
     1
102
RTVSPost2010Prop45
280
     0
102
RTVSPost2010PropOp45
 70
     1
102
RTVSPost2010Prop46
 90
       50
102
RTVSPost2010PropOp46
 70
     1
102
RTVSPost2010Prop47
 90
       50
102
RTVSPost2010PropOp47
 70
     1
102
RTVSPost2010Prop48
 90
       50
102
RTVSPost2010PropOp48
 70
     1
102
RTVSPost2010Prop49
280
     0
102
RTVSPost2010PropOp49
 70
     1
102
RTVSPost2010Prop50
 90
       50
102
RTVSPost2010PropOp50
 70
     1
102
RTVSPost2010Prop51ColorIndex
 90
      256
102
RTVSPost2010Prop51ColorRGB
 90
-16777216
102
RTVSPost2010PropOp51
 70
     0
102
RTVSPost2010Prop52
140
1.0
102
RTVSPost2010PropOp52
 70
     0
102
RTVSPost2010Prop53
 90
        2
102
RTVSPost2010PropOp53
 70
     1
102
RTVSPost2010Prop54
  1
strokes_ogs.tif
102
RTVSPost2010PropOp54
 70
     1
102
RTVSPost2010Prop55
280
     0
102
RTVSPost2010PropOp55
 70
     1
102
RTVSPost2010Prop56
140
1.0
102
RTVSPost2010PropOp56
 70
     1
102
RTVSPost2010Prop57
140
1.0
102
RTVSPost2010PropOp57
 70
     1
  0
XRECORD
  5
2B7
102
{ACAD_REACTORS
330
2B6
102
}
330
2B6
100
AcDbXrecord
280
     1
102
RTVSPost2010Prop28
280
     0
102
RTVSPost2010PropOp28
 70
     1
102
RTVSPost2010Prop29
280
     1
102
RTVSPost2010PropOp29
 70
     1
102
RTVSPost2010Prop30
280
     1
102
RTVSPost2010PropOp30
 70
     1
102
RTVSPost2010Prop31
280
     0
102
RTVSPost2010PropOp31
 70
     1
102
RTVSPost2010Prop32
280
     0
102
RTVSPost2010PropOp32
 70
     1
102
RTVSPost2010Prop33
280
     0
102
RTVSPost2010PropOp33
 70
     1
102
RTVSPost2010Prop34
280
     0
102
RTVSPost2010PropOp34
 70
     1
102
RTVSPost2010Prop35
280
     0
102
RTVSPost2010PropOp35
 70
     1
102
RTVSPost2010Prop36
280
     0
102
RTVSPost2010PropOp36
 70
     1
102
RTVSPost2010Prop37
 90
       50
102
RTVSPost2010PropOp37
 70
     1
102
RTVSPost2010Prop38
140
0.0
102
RTVSPost2010PropOp38
 70
     1
102
RTVSPost2010Prop39
140
1.0
102
RTVSPost2010PropOp39
 70
     1
102
RTVSPost2010Prop40
 90
        0
102
RTVSPost2010PropOp40
 70
     1
102
RTVSPost2010Prop41ColorIndex
 90
       18
102
RTVSPost2010Prop41ColorRGB
 90
        0
102
RTVSPost2010PropOp41
 70
     1
102
RTVSPost2010Prop42
 90
       50
102
RTVSPost2010PropOp42
 70
     1
102
RTVSPost2010Prop43
 90
        3
102
RTVSPost2010PropOp43
 70
     1
102
RTVSPost2010Prop44ColorIndex
 90
        5
102
RTVSPost2010Prop44ColorRGB
 90
      255
102
RTVSPost2010PropOp44
 70
     1
102
RTVSPost2010Prop45
280
     0
102
RTVSPost2010PropOp45
 70
     1
102
RTVSPost2010Prop46
 90
       50
102
RTVSPost2010PropOp46
 70
     1
102
RTVSPost2010Prop47
 90
       50
102
RTVSPost2010PropOp47
 70
     1
102
RTVSPost2010Prop48
 90
       50
102
RTVSPost2010PropOp48
 70
     1
102
RTVSPost2010Prop49
280
     0
102
RTVSPost2010PropOp49
 70
     1
102
RTVSPost2010Prop50
 90
       50
102
RTVSPost2010PropOp50
 70
     1
102
RTVSPost2010Prop51ColorIndex
 90
      256
102
RTVSPost2010Prop51ColorRGB
 90
-16777216
102
RTVSPost2010PropOp51
 70
     0
102
RTVSPost2010Prop52
140
1.0
102
RTVSPost2010PropOp52
 70
     0
102
RTVSPost2010Prop53
 90
        2
102
RTVSPost2010PropOp53
 70
     1
102
RTVSPost2010Prop54
  1
strokes_ogs.tif
102
RTVSPost2010PropOp54
 70
     1
102
RTVSPost2010Prop55
280
     0
102
RTVSPost2010PropOp55
 70
     1
102
RTVSPost2010Prop56
140
1.0
102
RTVSPost2010PropOp56
 70
     1
102
RTVSPost2010Prop57
140
1.0
102
RTVSPost2010PropOp57
 70
     1
  0
XRECORD
  5
2BF
102
{ACAD_REACTORS
330
2BE
102
}
330
2BE
100
AcDbXrecord
280
     1
102
RTVSPost2010Prop28
280
     0
102
RTVSPost2010PropOp28
 70
     1
102
RTVSPost2010Prop29
280
     1
102
RTVSPost2010PropOp29
 70
     1
102
RTVSPost2010Prop30
280
     1
102
RTVSPost2010PropOp30
 70
     1
102
RTVSPost2010Prop31
280
     0
102
RTVSPost2010PropOp31
 70
     1
102
RTVSPost2010Prop32
280
     0
102
RTVSPost2010PropOp32
 70
     1
102
RTVSPost2010Prop33
280
     0
102
RTVSPost2010PropOp33
 70
     1
102
RTVSPost2010Prop34
280
     0
102
RTVSPost2010PropOp34
 70
     1
102
RTVSPost2010Prop35
280
     0
102
RTVSPost2010PropOp35
 70
     1
102
RTVSPost2010Prop36
280
     0
102
RTVSPost2010PropOp36
 70
     1
102
RTVSPost2010Prop37
 90
       50
102
RTVSPost2010PropOp37
 70
     1
102
RTVSPost2010Prop38
140
0.0
102
RTVSPost2010PropOp38
 70
     1
102
RTVSPost2010Prop39
140
1.0
102
RTVSPost2010PropOp39
 70
     1
102
RTVSPost2010Prop40
 90
        0
102
RTVSPost2010PropOp40
 70
     1
102
RTVSPost2010Prop41ColorIndex
 90
       18
102
RTVSPost2010Prop41ColorRGB
 90
        0
102
RTVSPost2010PropOp41
 70
     1
102
RTVSPost2010Prop42
 90
       50
102
RTVSPost2010PropOp42
 70
     1
102
RTVSPost2010Prop43
 90
        3
102
RTVSPost2010PropOp43
 70
     1
102
RTVSPost2010Prop44ColorIndex
 90
        5
102
RTVSPost2010Prop44ColorRGB
 90
      255
102
RTVSPost2010PropOp44
 70
     1
102
RTVSPost2010Prop45
280
     0
102
RTVSPost2010PropOp45
 70
     1
102
RTVSPost2010Prop46
 90
       50
102
RTVSPost2010PropOp46
 70
     1
102
RTVSPost2010Prop47
 90
       50
102
RTVSPost2010PropOp47
 70
     1
102
RTVSPost2010Prop48
 90
       50
102
RTVSPost2010PropOp48
 70
     1
102
RTVSPost2010Prop49
280
     0
102
RTVSPost2010PropOp49
 70
     1
102
RTVSPost2010Prop50
 90
       50
102
RTVSPost2010PropOp50
 70
     1
102
RTVSPost2010Prop51ColorIndex
 90
      256
102
RTVSPost2010Prop51ColorRGB
 90
-16777216
102
RTVSPost2010PropOp51
 70
     0
102
RTVSPost2010Prop52
140
1.0
102
RTVSPost2010PropOp52
 70
     0
102
RTVSPost2010Prop53
 90
        2
102
RTVSPost2010PropOp53
 70
     1
102
RTVSPost2010Prop54
  1
strokes_ogs.tif
102
RTVSPost2010PropOp54
 70
     1
102
RTVSPost2010Prop55
280
     0
102
RTVSPost2010PropOp55
 70
     1
102
RTVSPost2010Prop56
140
1.0
102
RTVSPost2010PropOp56
 70
     1
102
RTVSPost2010Prop57
140
1.0
102
RTVSPost2010PropOp57
 70
     1
  0
XRECORD
  5
2C7
102
{ACAD_REACTORS
330
2C6
102
}
330
2C6
100
AcDbXrecord
280
     1
102
RTVSPost2010Prop28
280
     0
102
RTVSPost2010PropOp28
 70
     1
102
RTVSPost2010Prop29
280
     1
102
RTVSPost2010PropOp29
 70
     1
102
RTVSPost2010Prop30
280
     1
102
RTVSPost2010PropOp30
 70
     1
102
RTVSPost2010Prop31
280
     0
102
RTVSPost2010PropOp31
 70
     1
102
RTVSPost2010Prop32
280
     0
102
RTVSPost2010PropOp32
 70
     1
102
RTVSPost2010Prop33
280
     0
102
RTVSPost2010PropOp33
 70
     1
102
RTVSPost2010Prop34
280
     0
102
RTVSPost2010PropOp34
 70
     1
102
RTVSPost2010Prop35
280
     0
102
RTVSPost2010PropOp35
 70
     1
102
RTVSPost2010Prop36
280
     0
102
RTVSPost2010PropOp36
 70
     1
102
RTVSPost2010Prop37
 90
       50
102
RTVSPost2010PropOp37
 70
     1
102
RTVSPost2010Prop38
140
0.0
102
RTVSPost2010PropOp38
 70
     1
102
RTVSPost2010Prop39
140
1.0
102
RTVSPost2010PropOp39
 70
     1
102
RTVSPost2010Prop40
 90
        0
102
RTVSPost2010PropOp40
 70
     1
102
RTVSPost2010Prop41ColorIndex
 90
       18
102
RTVSPost2010Prop41ColorRGB
 90
        0
102
RTVSPost2010PropOp41
 70
     1
102
RTVSPost2010Prop42
 90
       50
102
RTVSPost2010PropOp42
 70
     1
102
RTVSPost2010Prop43
 90
        3
102
RTVSPost2010PropOp43
 70
     1
102
RTVSPost2010Prop44ColorIndex
 90
        5
102
RTVSPost2010Prop44ColorRGB
 90
      255
102
RTVSPost2010PropOp44
 70
     1
102
RTVSPost2010Prop45
280
     0
102
RTVSPost2010PropOp45
 70
     1
102
RTVSPost2010Prop46
 90
       50
102
RTVSPost2010PropOp46
 70
     1
102
RTVSPost2010Prop47
 90
       50
102
RTVSPost2010PropOp47
 70
     1
102
RTVSPost2010Prop48
 90
       50
102
RTVSPost2010PropOp48
 70
     1
102
RTVSPost2010Prop49
280
     0
102
RTVSPost2010PropOp49
 70
     1
102
RTVSPost2010Prop50
 90
       50
102
RTVSPost2010PropOp50
 70
     1
102
RTVSPost2010Prop51ColorIndex
 90
      256
102
RTVSPost2010Prop51ColorRGB
 90
-16777216
102
RTVSPost2010PropOp51
 70
     0
102
RTVSPost2010Prop52
140
1.0
102
RTVSPost2010PropOp52
 70
     0
102
RTVSPost2010Prop53
 90
        2
102
RTVSPost2010PropOp53
 70
     1
102
RTVSPost2010Prop54
  1
strokes_ogs.tif
102
RTVSPost2010PropOp54
 70
     1
102
RTVSPost2010Prop55
280
     0
102
RTVSPost2010PropOp55
 70
     1
102
RTVSPost2010Prop56
140
1.0
102
RTVSPost2010PropOp56
 70
     1
102
RTVSPost2010Prop57
140
1.0
102
RTVSPost2010PropOp57
 70
     1
  0
XRECORD
  5
2BB
102
{ACAD_REACTORS
330
2BA
102
}
330
2BA
100
AcDbXrecord
280
     1
102
RTVSPost2010Prop28
280
     0
102
RTVSPost2010PropOp28
 70
     1
102
RTVSPost2010Prop29
280
     1
102
RTVSPost2010PropOp29
 70
     1
102
RTVSPost2010Prop30
280
     1
102
RTVSPost2010PropOp30
 70
     1
102
RTVSPost2010Prop31
280
     0
102
RTVSPost2010PropOp31
 70
     1
102
RTVSPost2010Prop32
280
     0
102
RTVSPost2010PropOp32
 70
     1
102
RTVSPost2010Prop33
280
     0
102
RTVSPost2010PropOp33
 70
     1
102
RTVSPost2010Prop34
280
     0
102
RTVSPost2010PropOp34
 70
     1
102
RTVSPost2010Prop35
280
     0
102
RTVSPost2010PropOp35
 70
     1
102
RTVSPost2010Prop36
280
     0
102
RTVSPost2010PropOp36
 70
     1
102
RTVSPost2010Prop37
 90
       50
102
RTVSPost2010PropOp37
 70
     1
102
RTVSPost2010Prop38
140
0.0
102
RTVSPost2010PropOp38
 70
     1
102
RTVSPost2010Prop39
140
1.0
102
RTVSPost2010PropOp39
 70
     1
102
RTVSPost2010Prop40
 90
        0
102
RTVSPost2010PropOp40
 70
     1
102
RTVSPost2010Prop41ColorIndex
 90
       18
102
RTVSPost2010Prop41ColorRGB
 90
        0
102
RTVSPost2010PropOp41
 70
     1
102
RTVSPost2010Prop42
 90
       50
102
RTVSPost2010PropOp42
 70
     1
102
RTVSPost2010Prop43
 90
        3
102
RTVSPost2010PropOp43
 70
     1
102
RTVSPost2010Prop44ColorIndex
 90
        5
102
RTVSPost2010Prop44ColorRGB
 90
      255
102
RTVSPost2010PropOp44
 70
     1
102
RTVSPost2010Prop45
280
     0
102
RTVSPost2010PropOp45
 70
     1
102
RTVSPost2010Prop46
 90
       50
102
RTVSPost2010PropOp46
 70
     1
102
RTVSPost2010Prop47
 90
       50
102
RTVSPost2010PropOp47
 70
     1
102
RTVSPost2010Prop48
 90
       50
102
RTVSPost2010PropOp48
 70
     1
102
RTVSPost2010Prop49
280
     0
102
RTVSPost2010PropOp49
 70
     1
102
RTVSPost2010Prop50
 90
       50
102
RTVSPost2010PropOp50
 70
     1
102
RTVSPost2010Prop51ColorIndex
 90
      256
102
RTVSPost2010Prop51ColorRGB
 90
-16777216
102
RTVSPost2010PropOp51
 70
     0
102
RTVSPost2010Prop52
140
1.0
102
RTVSPost2010PropOp52
 70
     0
102
RTVSPost2010Prop53
 90
        2
102
RTVSPost2010PropOp53
 70
     1
102
RTVSPost2010Prop54
  1
strokes_ogs.tif
102
RTVSPost2010PropOp54
 70
     1
102
RTVSPost2010Prop55
280
     0
102
RTVSPost2010PropOp55
 70
     1
102
RTVSPost2010Prop56
140
1.0
102
RTVSPost2010PropOp56
 70
     1
102
RTVSPost2010Prop57
140
1.0
102
RTVSPost2010PropOp57
 70
     1
  0
XRECORD
  5
2BD
102
{ACAD_REACTORS
330
2BC
102
}
330
2BC
100
AcDbXrecord
280
     1
102
RTVSPost2010Prop28
280
     0
102
RTVSPost2010PropOp28
 70
     1
102
RTVSPost2010Prop29
280
     1
102
RTVSPost2010PropOp29
 70
     1
102
RTVSPost2010Prop30
280
     1
102
RTVSPost2010PropOp30
 70
     1
102
RTVSPost2010Prop31
280
     0
102
RTVSPost2010PropOp31
 70
     1
102
RTVSPost2010Prop32
280
     0
102
RTVSPost2010PropOp32
 70
     1
102
RTVSPost2010Prop33
280
     0
102
RTVSPost2010PropOp33
 70
     1
102
RTVSPost2010Prop34
280
     0
102
RTVSPost2010PropOp34
 70
     1
102
RTVSPost2010Prop35
280
     0
102
RTVSPost2010PropOp35
 70
     1
102
RTVSPost2010Prop36
280
     0
102
RTVSPost2010PropOp36
 70
     1
102
RTVSPost2010Prop37
 90
       50
102
RTVSPost2010PropOp37
 70
     1
102
RTVSPost2010Prop38
140
0.0
102
RTVSPost2010PropOp38
 70
     1
102
RTVSPost2010Prop39
140
1.0
102
RTVSPost2010PropOp39
 70
     1
102
RTVSPost2010Prop40
 90
        0
102
RTVSPost2010PropOp40
 70
     1
102
RTVSPost2010Prop41ColorIndex
 90
       18
102
RTVSPost2010Prop41ColorRGB
 90
        0
102
RTVSPost2010PropOp41
 70
     1
102
RTVSPost2010Prop42
 90
       50
102
RTVSPost2010PropOp42
 70
     1
102
RTVSPost2010Prop43
 90
        3
102
RTVSPost2010PropOp43
 70
     1
102
RTVSPost2010Prop44ColorIndex
 90
        5
102
RTVSPost2010Prop44ColorRGB
 90
      255
102
RTVSPost2010PropOp44
 70
     1
102
RTVSPost2010Prop45
280
     0
102
RTVSPost2010PropOp45
 70
     1
102
RTVSPost2010Prop46
 90
       50
102
RTVSPost2010PropOp46
 70
     1
102
RTVSPost2010Prop47
 90
       50
102
RTVSPost2010PropOp47
 70
     1
102
RTVSPost2010Prop48
 90
       50
102
RTVSPost2010PropOp48
 70
     1
102
RTVSPost2010Prop49
280
     0
102
RTVSPost2010PropOp49
 70
     1
102
RTVSPost2010Prop50
 90
       50
102
RTVSPost2010PropOp50
 70
     1
102
RTVSPost2010Prop51ColorIndex
 90
      256
102
RTVSPost2010Prop51ColorRGB
 90
-16777216
102
RTVSPost2010PropOp51
 70
     0
102
RTVSPost2010Prop52
140
1.0
102
RTVSPost2010PropOp52
 70
     0
102
RTVSPost2010Prop53
 90
        2
102
RTVSPost2010PropOp53
 70
     1
102
RTVSPost2010Prop54
  1
strokes_ogs.tif
102
RTVSPost2010PropOp54
 70
     1
102
RTVSPost2010Prop55
280
     0
102
RTVSPost2010PropOp55
 70
     1
102
RTVSPost2010Prop56
140
1.0
102
RTVSPost2010PropOp56
 70
     1
102
RTVSPost2010Prop57
140
1.0
102
RTVSPost2010PropOp57
 70
     1
  0
XRECORD
  5
2CD
102
{ACAD_REACTORS
330
2CC
102
}
330
2CC
100
AcDbXrecord
280
     1
102
RTVSPost2010Prop28
280
     0
102
RTVSPost2010PropOp28
 70
     0
102
RTVSPost2010Prop29
280
     1
102
RTVSPost2010PropOp29
 70
     0
102
RTVSPost2010Prop30
280
     1
102
RTVSPost2010PropOp30
 70
     0
102
RTVSPost2010Prop31
280
     0
102
RTVSPost2010PropOp31
 70
     0
102
RTVSPost2010Prop32
280
     0
102
RTVSPost2010PropOp32
 70
     0
102
RTVSPost2010Prop33
280
     0
102
RTVSPost2010PropOp33
 70
     0
102
RTVSPost2010Prop34
280
     0
102
RTVSPost2010PropOp34
 70
     0
102
RTVSPost2010Prop35
280
     0
102
RTVSPost2010PropOp35
 70
     0
102
RTVSPost2010Prop36
280
     0
102
RTVSPost2010PropOp36
 70
     0
102
RTVSPost2010Prop37
 90
       50
102
RTVSPost2010PropOp37
 70
     0
102
RTVSPost2010Prop38
140
0.0
102
RTVSPost2010PropOp38
 70
     0
102
RTVSPost2010Prop39
140
1.0
102
RTVSPost2010PropOp39
 70
     0
102
RTVSPost2010Prop40
 90
        0
102
RTVSPost2010PropOp40
 70
     0
102
RTVSPost2010Prop41ColorIndex
 90
       18
102
RTVSPost2010Prop41ColorRGB
 90
        0
102
RTVSPost2010PropOp41
 70
     0
102
RTVSPost2010Prop42
 90
       50
102
RTVSPost2010PropOp42
 70
     0
102
RTVSPost2010Prop43
 90
        3
102
RTVSPost2010PropOp43
 70
     0
102
RTVSPost2010Prop44ColorIndex
 90
        5
102
RTVSPost2010Prop44ColorRGB
 90
      255
102
RTVSPost2010PropOp44
 70
     0
102
RTVSPost2010Prop45
280
     0
102
RTVSPost2010PropOp45
 70
     0
102
RTVSPost2010Prop46
 90
       50
102
RTVSPost2010PropOp46
 70
     0
102
RTVSPost2010Prop47
 90
       50
102
RTVSPost2010PropOp47
 70
     0
102
RTVSPost2010Prop48
 90
       50
102
RTVSPost2010PropOp48
 70
     0
102
RTVSPost2010Prop49
280
     0
102
RTVSPost2010PropOp49
 70
     0
102
RTVSPost2010Prop50
 90
       50
102
RTVSPost2010PropOp50
 70
     0
102
RTVSPost2010Prop51ColorIndex
 90
      256
102
RTVSPost2010Prop51ColorRGB
 90
-16777216
102
RTVSPost2010PropOp51
 70
     0
102
RTVSPost2010Prop52
140
1.0
102
RTVSPost2010PropOp52
 70
     0
102
RTVSPost2010Prop53
 90
        2
102
RTVSPost2010PropOp53
 70
     0
102
RTVSPost2010Prop54
  1
strokes_ogs.tif
102
RTVSPost2010PropOp54
 70
     0
102
RTVSPost2010Prop55
280
     0
102
RTVSPost2010PropOp55
 70
     0
102
RTVSPost2010Prop56
140
1.0
102
RTVSPost2010PropOp56
 70
     0
102
RTVSPost2010Prop57
140
1.0
102
RTVSPost2010PropOp57
 70
     0
  0
XRECORD
  5
2C5
102
{ACAD_REACTORS
330
2C4
102
}
330
2C4
100
AcDbXrecord
280
     1
102
RTVSPost2010Prop28
280
     0
102
RTVSPost2010PropOp28
 70
     1
102
RTVSPost2010Prop29
280
     1
102
RTVSPost2010PropOp29
 70
     1
102
RTVSPost2010Prop30
280
     1
102
RTVSPost2010PropOp30
 70
     1
102
RTVSPost2010Prop31
280
     0
102
RTVSPost2010PropOp31
 70
     1
102
RTVSPost2010Prop32
280
     0
102
RTVSPost2010PropOp32
 70
     1
102
RTVSPost2010Prop33
280
     0
102
RTVSPost2010PropOp33
 70
     1
102
RTVSPost2010Prop34
280
     0
102
RTVSPost2010PropOp34
 70
     1
102
RTVSPost2010Prop35
280
     0
102
RTVSPost2010PropOp35
 70
     1
102
RTVSPost2010Prop36
280
     0
102
RTVSPost2010PropOp36
 70
     1
102
RTVSPost2010Prop37
 90
       50
102
RTVSPost2010PropOp37
 70
     1
102
RTVSPost2010Prop38
140
0.0
102
RTVSPost2010PropOp38
 70
     1
102
RTVSPost2010Prop39
140
1.0
102
RTVSPost2010PropOp39
 70
     1
102
RTVSPost2010Prop40
 90
        0
102
RTVSPost2010PropOp40
 70
     1
102
RTVSPost2010Prop41ColorIndex
 90
       18
102
RTVSPost2010Prop41ColorRGB
 90
        0
102
RTVSPost2010PropOp41
 70
     1
102
RTVSPost2010Prop42
 90
       50
102
RTVSPost2010PropOp42
 70
     1
102
RTVSPost2010Prop43
 90
        3
102
RTVSPost2010PropOp43
 70
     1
102
RTVSPost2010Prop44ColorIndex
 90
        5
102
RTVSPost2010Prop44ColorRGB
 90
      255
102
RTVSPost2010PropOp44
 70
     1
102
RTVSPost2010Prop45
280
     0
102
RTVSPost2010PropOp45
 70
     1
102
RTVSPost2010Prop46
 90
       50
102
RTVSPost2010PropOp46
 70
     1
102
RTVSPost2010Prop47
 90
       50
102
RTVSPost2010PropOp47
 70
     1
102
RTVSPost2010Prop48
 90
       50
102
RTVSPost2010PropOp48
 70
     1
102
RTVSPost2010Prop49
280
     0
102
RTVSPost2010PropOp49
 70
     1
102
RTVSPost2010Prop50
 90
       50
102
RTVSPost2010PropOp50
 70
     1
102
RTVSPost2010Prop51ColorIndex
 90
      256
102
RTVSPost2010Prop51ColorRGB
 90
-16777216
102
RTVSPost2010PropOp51
 70
     0
102
RTVSPost2010Prop52
140
1.0
102
RTVSPost2010PropOp52
 70
     0
102
RTVSPost2010Prop53
 90
        2
102
RTVSPost2010PropOp53
 70
     1
102
RTVSPost2010Prop54
  1
strokes_ogs.tif
102
RTVSPost2010PropOp54
 70
     1
102
RTVSPost2010Prop55
280
     0
102
RTVSPost2010PropOp55
 70
     1
102
RTVSPost2010Prop56
140
1.0
102
RTVSPost2010PropOp56
 70
     1
102
RTVSPost2010Prop57
140
1.0
102
RTVSPost2010PropOp57
 70
     1
  0
XRECORD
  5
2A9
102
{ACAD_REACTORS
330
2A8
102
}
330
2A8
100
AcDbXrecord
280
     1
102
RTVSPost2010Prop28
280
     0
102
RTVSPost2010PropOp28
 70
     1
102
RTVSPost2010Prop29
280
     1
102
RTVSPost2010PropOp29
 70
     1
102
RTVSPost2010Prop30
280
     1
102
RTVSPost2010PropOp30
 70
     1
102
RTVSPost2010Prop31
280
     0
102
RTVSPost2010PropOp31
 70
     1
102
RTVSPost2010Prop32
280
     0
102
RTVSPost2010PropOp32
 70
     1
102
RTVSPost2010Prop33
280
     0
102
RTVSPost2010PropOp33
 70
     1
102
RTVSPost2010Prop34
280
     0
102
RTVSPost2010PropOp34
 70
     1
102
RTVSPost2010Prop35
280
     0
102
RTVSPost2010PropOp35
 70
     1
102
RTVSPost2010Prop36
280
     0
102
RTVSPost2010PropOp36
 70
     1
102
RTVSPost2010Prop37
 90
       50
102
RTVSPost2010PropOp37
 70
     1
102
RTVSPost2010Prop38
140
0.0
102
RTVSPost2010PropOp38
 70
     1
102
RTVSPost2010Prop39
140
1.0
102
RTVSPost2010PropOp39
 70
     1
102
RTVSPost2010Prop40
 90
        0
102
RTVSPost2010PropOp40
 70
     1
102
RTVSPost2010Prop41ColorIndex
 90
       18
102
RTVSPost2010Prop41ColorRGB
 90
        0
102
RTVSPost2010PropOp41
 70
     1
102
RTVSPost2010Prop42
 90
       50
102
RTVSPost2010PropOp42
 70
     1
102
RTVSPost2010Prop43
 90
        3
102
RTVSPost2010PropOp43
 70
     1
102
RTVSPost2010Prop44ColorIndex
 90
        5
102
RTVSPost2010Prop44ColorRGB
 90
      255
102
RTVSPost2010PropOp44
 70
     1
102
RTVSPost2010Prop45
280
     0
102
RTVSPost2010PropOp45
 70
     1
102
RTVSPost2010Prop46
 90
       50
102
RTVSPost2010PropOp46
 70
     1
102
RTVSPost2010Prop47
 90
       50
102
RTVSPost2010PropOp47
 70
     1
102
RTVSPost2010Prop48
 90
       50
102
RTVSPost2010PropOp48
 70
     1
102
RTVSPost2010Prop49
280
     0
102
RTVSPost2010PropOp49
 70
     1
102
RTVSPost2010Prop50
 90
       50
102
RTVSPost2010PropOp50
 70
     1
102
RTVSPost2010Prop51ColorIndex
 90
      256
102
RTVSPost2010Prop51ColorRGB
 90
-16777216
102
RTVSPost2010PropOp51
 70
     0
102
RTVSPost2010Prop52
140
1.0
102
RTVSPost2010PropOp52
 70
     0
102
RTVSPost2010Prop53
 90
        2
102
RTVSPost2010PropOp53
 70
     1
102
RTVSPost2010Prop54
  1
strokes_ogs.tif
102
RTVSPost2010PropOp54
 70
     1
102
RTVSPost2010Prop55
280
     0
102
RTVSPost2010PropOp55
 70
     1
102
RTVSPost2010Prop56
140
1.0
102
RTVSPost2010PropOp56
 70
     1
102
RTVSPost2010Prop57
140
1.0
102
RTVSPost2010PropOp57
 70
     1
  0
XRECORD
  5
2AB
102
{ACAD_REACTORS
330
2AA
102
}
330
2AA
100
AcDbXrecord
280
     1
102
RTVSPost2010Prop28
280
     0
102
RTVSPost2010PropOp28
 70
     1
102
RTVSPost2010Prop29
280
     1
102
RTVSPost2010PropOp29
 70
     1
102
RTVSPost2010Prop30
280
     1
102
RTVSPost2010PropOp30
 70
     1
102
RTVSPost2010Prop31
280
     0
102
RTVSPost2010PropOp31
 70
     1
102
RTVSPost2010Prop32
280
     0
102
RTVSPost2010PropOp32
 70
     1
102
RTVSPost2010Prop33
280
     0
102
RTVSPost2010PropOp33
 70
     1
102
RTVSPost2010Prop34
280
     0
102
RTVSPost2010PropOp34
 70
     1
102
RTVSPost2010Prop35
280
     0
102
RTVSPost2010PropOp35
 70
     1
102
RTVSPost2010Prop36
280
     0
102
RTVSPost2010PropOp36
 70
     1
102
RTVSPost2010Prop37
 90
       50
102
RTVSPost2010PropOp37
 70
     1
102
RTVSPost2010Prop38
140
0.0
102
RTVSPost2010PropOp38
 70
     1
102
RTVSPost2010Prop39
140
1.0
102
RTVSPost2010PropOp39
 70
     1
102
RTVSPost2010Prop40
 90
        0
102
RTVSPost2010PropOp40
 70
     1
102
RTVSPost2010Prop41ColorIndex
 90
       18
102
RTVSPost2010Prop41ColorRGB
 90
        0
102
RTVSPost2010PropOp41
 70
     1
102
RTVSPost2010Prop42
 90
       50
102
RTVSPost2010PropOp42
 70
     1
102
RTVSPost2010Prop43
 90
        3
102
RTVSPost2010PropOp43
 70
     1
102
RTVSPost2010Prop44ColorIndex
 90
        5
102
RTVSPost2010Prop44ColorRGB
 90
      255
102
RTVSPost2010PropOp44
 70
     1
102
RTVSPost2010Prop45
280
     0
102
RTVSPost2010PropOp45
 70
     1
102
RTVSPost2010Prop46
 90
       50
102
RTVSPost2010PropOp46
 70
     1
102
RTVSPost2010Prop47
 90
       50
102
RTVSPost2010PropOp47
 70
     1
102
RTVSPost2010Prop48
 90
       50
102
RTVSPost2010PropOp48
 70
     1
102
RTVSPost2010Prop49
280
     0
102
RTVSPost2010PropOp49
 70
     1
102
RTVSPost2010Prop50
 90
       50
102
RTVSPost2010PropOp50
 70
     1
102
RTVSPost2010Prop51ColorIndex
 90
      256
102
RTVSPost2010Prop51ColorRGB
 90
-16777216
102
RTVSPost2010PropOp51
 70
     0
102
RTVSPost2010Prop52
140
1.0
102
RTVSPost2010PropOp52
 70
     0
102
RTVSPost2010Prop53
 90
        2
102
RTVSPost2010PropOp53
 70
     1
102
RTVSPost2010Prop54
  1
strokes_ogs.tif
102
RTVSPost2010PropOp54
 70
     1
102
RTVSPost2010Prop55
280
     0
102
RTVSPost2010PropOp55
 70
     1
102
RTVSPost2010Prop56
140
1.0
102
RTVSPost2010PropOp56
 70
     1
102
RTVSPost2010Prop57
140
1.0
102
RTVSPost2010PropOp57
 70
     1
  0
XRECORD
  5
2AD
102
{ACAD_REACTORS
330
2AC
102
}
330
2AC
100
AcDbXrecord
280
     1
102
RTVSPost2010Prop28
280
     0
102
RTVSPost2010PropOp28
 70
     1
102
RTVSPost2010Prop29
280
     1
102
RTVSPost2010PropOp29
 70
     1
102
RTVSPost2010Prop30
280
     1
102
RTVSPost2010PropOp30
 70
     1
102
RTVSPost2010Prop31
280
     0
102
RTVSPost2010PropOp31
 70
     1
102
RTVSPost2010Prop32
280
     0
102
RTVSPost2010PropOp32
 70
     1
102
RTVSPost2010Prop33
280
     0
102
RTVSPost2010PropOp33
 70
     1
102
RTVSPost2010Prop34
280
     0
102
RTVSPost2010PropOp34
 70
     1
102
RTVSPost2010Prop35
280
     0
102
RTVSPost2010PropOp35
 70
     1
102
RTVSPost2010Prop36
280
     0
102
RTVSPost2010PropOp36
 70
     1
102
RTVSPost2010Prop37
 90
       50
102
RTVSPost2010PropOp37
 70
     1
102
RTVSPost2010Prop38
140
0.0
102
RTVSPost2010PropOp38
 70
     1
102
RTVSPost2010Prop39
140
1.0
102
RTVSPost2010PropOp39
 70
     1
102
RTVSPost2010Prop40
 90
        0
102
RTVSPost2010PropOp40
 70
     1
102
RTVSPost2010Prop41ColorIndex
 90
       18
102
RTVSPost2010Prop41ColorRGB
 90
        0
102
RTVSPost2010PropOp41
 70
     1
102
RTVSPost2010Prop42
 90
       50
102
RTVSPost2010PropOp42
 70
     1
102
RTVSPost2010Prop43
 90
        3
102
RTVSPost2010PropOp43
 70
     1
102
RTVSPost2010Prop44ColorIndex
 90
        5
102
RTVSPost2010Prop44ColorRGB
 90
      255
102
RTVSPost2010PropOp44
 70
     1
102
RTVSPost2010Prop45
280
     0
102
RTVSPost2010PropOp45
 70
     1
102
RTVSPost2010Prop46
 90
       50
102
RTVSPost2010PropOp46
 70
     1
102
RTVSPost2010Prop47
 90
       50
102
RTVSPost2010PropOp47
 70
     1
102
RTVSPost2010Prop48
 90
       50
102
RTVSPost2010PropOp48
 70
     1
102
RTVSPost2010Prop49
280
     0
102
RTVSPost2010PropOp49
 70
     1
102
RTVSPost2010Prop50
 90
       50
102
RTVSPost2010PropOp50
 70
     1
102
RTVSPost2010Prop51ColorIndex
 90
      256
102
RTVSPost2010Prop51ColorRGB
 90
-16777216
102
RTVSPost2010PropOp51
 70
     0
102
RTVSPost2010Prop52
140
1.0
102
RTVSPost2010PropOp52
 70
     0
102
RTVSPost2010Prop53
 90
        2
102
RTVSPost2010PropOp53
 70
     1
102
RTVSPost2010Prop54
  1
strokes_ogs.tif
102
RTVSPost2010PropOp54
 70
     1
102
RTVSPost2010Prop55
280
     0
102
RTVSPost2010PropOp55
 70
     1
102
RTVSPost2010Prop56
140
1.0
102
RTVSPost2010PropOp56
 70
     1
102
RTVSPost2010Prop57
140
1.0
102
RTVSPost2010PropOp57
 70
     1
  0
XRECORD
  5
2AF
102
{ACAD_REACTORS
330
2AE
102
}
330
2AE
100
AcDbXrecord
280
     1
102
RTVSPost2010Prop28
280
     0
102
RTVSPost2010PropOp28
 70
     1
102
RTVSPost2010Prop29
280
     1
102
RTVSPost2010PropOp29
 70
     1
102
RTVSPost2010Prop30
280
     1
102
RTVSPost2010PropOp30
 70
     1
102
RTVSPost2010Prop31
280
     0
102
RTVSPost2010PropOp31
 70
     1
102
RTVSPost2010Prop32
280
     0
102
RTVSPost2010PropOp32
 70
     1
102
RTVSPost2010Prop33
280
     0
102
RTVSPost2010PropOp33
 70
     1
102
RTVSPost2010Prop34
280
     0
102
RTVSPost2010PropOp34
 70
     1
102
RTVSPost2010Prop35
280
     0
102
RTVSPost2010PropOp35
 70
     1
102
RTVSPost2010Prop36
280
     0
102
RTVSPost2010PropOp36
 70
     1
102
RTVSPost2010Prop37
 90
       50
102
RTVSPost2010PropOp37
 70
     1
102
RTVSPost2010Prop38
140
0.0
102
RTVSPost2010PropOp38
 70
     1
102
RTVSPost2010Prop39
140
1.0
102
RTVSPost2010PropOp39
 70
     1
102
RTVSPost2010Prop40
 90
        0
102
RTVSPost2010PropOp40
 70
     1
102
RTVSPost2010Prop41ColorIndex
 90
       18
102
RTVSPost2010Prop41ColorRGB
 90
        0
102
RTVSPost2010PropOp41
 70
     1
102
RTVSPost2010Prop42
 90
       50
102
RTVSPost2010PropOp42
 70
     1
102
RTVSPost2010Prop43
 90
        3
102
RTVSPost2010PropOp43
 70
     1
102
RTVSPost2010Prop44ColorIndex
 90
        5
102
RTVSPost2010Prop44ColorRGB
 90
      255
102
RTVSPost2010PropOp44
 70
     1
102
RTVSPost2010Prop45
280
     0
102
RTVSPost2010PropOp45
 70
     1
102
RTVSPost2010Prop46
 90
       50
102
RTVSPost2010PropOp46
 70
     1
102
RTVSPost2010Prop47
 90
       50
102
RTVSPost2010PropOp47
 70
     1
102
RTVSPost2010Prop48
 90
       50
102
RTVSPost2010PropOp48
 70
     1
102
RTVSPost2010Prop49
280
     0
102
RTVSPost2010PropOp49
 70
     1
102
RTVSPost2010Prop50
 90
       50
102
RTVSPost2010PropOp50
 70
     1
102
RTVSPost2010Prop51ColorIndex
 90
      256
102
RTVSPost2010Prop51ColorRGB
 90
-16777216
102
RTVSPost2010PropOp51
 70
     0
102
RTVSPost2010Prop52
140
1.0
102
RTVSPost2010PropOp52
 70
     0
102
RTVSPost2010Prop53
 90
        2
102
RTVSPost2010PropOp53
 70
     1
102
RTVSPost2010Prop54
  1
strokes_ogs.tif
102
RTVSPost2010PropOp54
 70
     1
102
RTVSPost2010Prop55
280
     0
102
RTVSPost2010PropOp55
 70
     1
102
RTVSPost2010Prop56
140
1.0
102
RTVSPost2010PropOp56
 70
     1
102
RTVSPost2010Prop57
140
1.0
102
RTVSPost2010PropOp57
 70
     1
  0
XRECORD
  5
2B5
102
{ACAD_REACTORS
330
2B4
102
}
330
2B4
100
AcDbXrecord
280
     1
102
RTVSPost2010Prop28
280
     0
102
RTVSPost2010PropOp28
 70
     1
102
RTVSPost2010Prop29
280
     1
102
RTVSPost2010PropOp29
 70
     1
102
RTVSPost2010Prop30
280
     1
102
RTVSPost2010PropOp30
 70
     1
102
RTVSPost2010Prop31
280
     0
102
RTVSPost2010PropOp31
 70
     1
102
RTVSPost2010Prop32
280
     0
102
RTVSPost2010PropOp32
 70
     1
102
RTVSPost2010Prop33
280
     0
102
RTVSPost2010PropOp33
 70
     1
102
RTVSPost2010Prop34
280
     0
102
RTVSPost2010PropOp34
 70
     1
102
RTVSPost2010Prop35
280
     0
102
RTVSPost2010PropOp35
 70
     1
102
RTVSPost2010Prop36
280
     0
102
RTVSPost2010PropOp36
 70
     1
102
RTVSPost2010Prop37
 90
       50
102
RTVSPost2010PropOp37
 70
     1
102
RTVSPost2010Prop38
140
0.0
102
RTVSPost2010PropOp38
 70
     1
102
RTVSPost2010Prop39
140
1.0
102
RTVSPost2010PropOp39
 70
     1
102
RTVSPost2010Prop40
 90
        0
102
RTVSPost2010PropOp40
 70
     1
102
RTVSPost2010Prop41ColorIndex
 90
       18
102
RTVSPost2010Prop41ColorRGB
 90
        0
102
RTVSPost2010PropOp41
 70
     1
102
RTVSPost2010Prop42
 90
       50
102
RTVSPost2010PropOp42
 70
     1
102
RTVSPost2010Prop43
 90
        3
102
RTVSPost2010PropOp43
 70
     1
102
RTVSPost2010Prop44ColorIndex
 90
        5
102
RTVSPost2010Prop44ColorRGB
 90
      255
102
RTVSPost2010PropOp44
 70
     1
102
RTVSPost2010Prop45
280
     0
102
RTVSPost2010PropOp45
 70
     1
102
RTVSPost2010Prop46
 90
       50
102
RTVSPost2010PropOp46
 70
     1
102
RTVSPost2010Prop47
 90
       50
102
RTVSPost2010PropOp47
 70
     1
102
RTVSPost2010Prop48
 90
       50
102
RTVSPost2010PropOp48
 70
     1
102
RTVSPost2010Prop49
280
     0
102
RTVSPost2010PropOp49
 70
     1
102
RTVSPost2010Prop50
 90
       50
102
RTVSPost2010PropOp50
 70
     1
102
RTVSPost2010Prop51ColorIndex
 90
      256
102
RTVSPost2010Prop51ColorRGB
 90
-16777216
102
RTVSPost2010PropOp51
 70
     0
102
RTVSPost2010Prop52
140
1.0
102
RTVSPost2010PropOp52
 70
     0
102
RTVSPost2010Prop53
 90
        2
102
RTVSPost2010PropOp53
 70
     1
102
RTVSPost2010Prop54
  1
strokes_ogs.tif
102
RTVSPost2010PropOp54
 70
     1
102
RTVSPost2010Prop55
280
     0
102
RTVSPost2010PropOp55
 70
     1
102
RTVSPost2010Prop56
140
1.0
102
RTVSPost2010PropOp56
 70
     1
102
RTVSPost2010Prop57
140
1.0
102
RTVSPost2010PropOp57
 70
     1
  0
XRECORD
  5
2C9
102
{ACAD_REACTORS
330
2C8
102
}
330
2C8
100
AcDbXrecord
280
     1
102
RTVSPost2010Prop28
280
     0
102
RTVSPost2010PropOp28
 70
     0
102
RTVSPost2010Prop29
280
     1
102
RTVSPost2010PropOp29
 70
     0
102
RTVSPost2010Prop30
280
     1
102
RTVSPost2010PropOp30
 70
     0
102
RTVSPost2010Prop31
280
     0
102
RTVSPost2010PropOp31
 70
     0
102
RTVSPost2010Prop32
280
     0
102
RTVSPost2010PropOp32
 70
     0
102
RTVSPost2010Prop33
280
     0
102
RTVSPost2010PropOp33
 70
     0
102
RTVSPost2010Prop34
280
     0
102
RTVSPost2010PropOp34
 70
     0
102
RTVSPost2010Prop35
280
     0
102
RTVSPost2010PropOp35
 70
     0
102
RTVSPost2010Prop36
280
     0
102
RTVSPost2010PropOp36
 70
     0
102
RTVSPost2010Prop37
 90
       50
102
RTVSPost2010PropOp37
 70
     0
102
RTVSPost2010Prop38
140
0.0
102
RTVSPost2010PropOp38
 70
     0
102
RTVSPost2010Prop39
140
1.0
102
RTVSPost2010PropOp39
 70
     0
102
RTVSPost2010Prop40
 90
        0
102
RTVSPost2010PropOp40
 70
     0
102
RTVSPost2010Prop41ColorIndex
 90
       18
102
RTVSPost2010Prop41ColorRGB
 90
        0
102
RTVSPost2010PropOp41
 70
     0
102
RTVSPost2010Prop42
 90
       50
102
RTVSPost2010PropOp42
 70
     0
102
RTVSPost2010Prop43
 90
        3
102
RTVSPost2010PropOp43
 70
     0
102
RTVSPost2010Prop44ColorIndex
 90
        5
102
RTVSPost2010Prop44ColorRGB
 90
      255
102
RTVSPost2010PropOp44
 70
     0
102
RTVSPost2010Prop45
280
     0
102
RTVSPost2010PropOp45
 70
     0
102
RTVSPost2010Prop46
 90
       50
102
RTVSPost2010PropOp46
 70
     0
102
RTVSPost2010Prop47
 90
       50
102
RTVSPost2010PropOp47
 70
     0
102
RTVSPost2010Prop48
 90
       50
102
RTVSPost2010PropOp48
 70
     0
102
RTVSPost2010Prop49
280
     0
102
RTVSPost2010PropOp49
 70
     0
102
RTVSPost2010Prop50
 90
       50
102
RTVSPost2010PropOp50
 70
     0
102
RTVSPost2010Prop51ColorIndex
 90
      256
102
RTVSPost2010Prop51ColorRGB
 90
-16777216
102
RTVSPost2010PropOp51
 70
     0
102
RTVSPost2010Prop52
140
1.0
102
RTVSPost2010PropOp52
 70
     0
102
RTVSPost2010Prop53
 90
        2
102
RTVSPost2010PropOp53
 70
     0
102
RTVSPost2010Prop54
  1
strokes_ogs.tif
102
RTVSPost2010PropOp54
 70
     0
102
RTVSPost2010Prop55
280
     0
102
RTVSPost2010PropOp55
 70
     0
102
RTVSPost2010Prop56
140
1.0
102
RTVSPost2010PropOp56
 70
     0
102
RTVSPost2010Prop57
140
1.0
102
RTVSPost2010PropOp57
 70
     0
  0
XRECORD
  5
2C3
102
{ACAD_REACTORS
330
2C2
102
}
330
2C2
100
AcDbXrecord
280
     1
102
RTVSPost2010Prop28
280
     0
102
RTVSPost2010PropOp28
 70
     1
102
RTVSPost2010Prop29
280
     1
102
RTVSPost2010PropOp29
 70
     1
102
RTVSPost2010Prop30
280
     1
102
RTVSPost2010PropOp30
 70
     1
102
RTVSPost2010Prop31
280
     0
102
RTVSPost2010PropOp31
 70
     1
102
RTVSPost2010Prop32
280
     0
102
RTVSPost2010PropOp32
 70
     1
102
RTVSPost2010Prop33
280
     0
102
RTVSPost2010PropOp33
 70
     1
102
RTVSPost2010Prop34
280
     0
102
RTVSPost2010PropOp34
 70
     1
102
RTVSPost2010Prop35
280
     0
102
RTVSPost2010PropOp35
 70
     1
102
RTVSPost2010Prop36
280
     0
102
RTVSPost2010PropOp36
 70
     1
102
RTVSPost2010Prop37
 90
       50
102
RTVSPost2010PropOp37
 70
     1
102
RTVSPost2010Prop38
140
0.0
102
RTVSPost2010PropOp38
 70
     1
102
RTVSPost2010Prop39
140
1.0
102
RTVSPost2010PropOp39
 70
     1
102
RTVSPost2010Prop40
 90
        0
102
RTVSPost2010PropOp40
 70
     1
102
RTVSPost2010Prop41ColorIndex
 90
       18
102
RTVSPost2010Prop41ColorRGB
 90
        0
102
RTVSPost2010PropOp41
 70
     1
102
RTVSPost2010Prop42
 90
       50
102
RTVSPost2010PropOp42
 70
     1
102
RTVSPost2010Prop43
 90
        3
102
RTVSPost2010PropOp43
 70
     1
102
RTVSPost2010Prop44ColorIndex
 90
        5
102
RTVSPost2010Prop44ColorRGB
 90
      255
102
RTVSPost2010PropOp44
 70
     1
102
RTVSPost2010Prop45
280
     0
102
RTVSPost2010PropOp45
 70
     1
102
RTVSPost2010Prop46
 90
       50
102
RTVSPost2010PropOp46
 70
     1
102
RTVSPost2010Prop47
 90
       50
102
RTVSPost2010PropOp47
 70
     1
102
RTVSPost2010Prop48
 90
       50
102
RTVSPost2010PropOp48
 70
     1
102
RTVSPost2010Prop49
280
     0
102
RTVSPost2010PropOp49
 70
     1
102
RTVSPost2010Prop50
 90
       50
102
RTVSPost2010PropOp50
 70
     1
102
RTVSPost2010Prop51ColorIndex
 90
      256
102
RTVSPost2010Prop51ColorRGB
 90
-16777216
102
RTVSPost2010PropOp51
 70
     0
102
RTVSPost2010Prop52
140
1.0
102
RTVSPost2010PropOp52
 70
     0
102
RTVSPost2010Prop53
 90
        2
102
RTVSPost2010PropOp53
 70
     1
102
RTVSPost2010Prop54
  1
strokes_ogs.tif
102
RTVSPost2010PropOp54
 70
     1
102
RTVSPost2010Prop55
280
     0
102
RTVSPost2010PropOp55
 70
     1
102
RTVSPost2010Prop56
140
1.0
102
RTVSPost2010PropOp56
 70
     1
102
RTVSPost2010Prop57
140
1.0
102
RTVSPost2010PropOp57
 70
     1
  0
XRECORD
  5
2CB
102
{ACAD_REACTORS
330
2CA
102
}
330
2CA
100
AcDbXrecord
280
     1
102
RTVSPost2010Prop28
280
     0
102
RTVSPost2010PropOp28
 70
     0
102
RTVSPost2010Prop29
280
     1
102
RTVSPost2010PropOp29
 70
     0
102
RTVSPost2010Prop30
280
     1
102
RTVSPost2010PropOp30
 70
     0
102
RTVSPost2010Prop31
280
     0
102
RTVSPost2010PropOp31
 70
     0
102
RTVSPost2010Prop32
280
     0
102
RTVSPost2010PropOp32
 70
     0
102
RTVSPost2010Prop33
280
     0
102
RTVSPost2010PropOp33
 70
     0
102
RTVSPost2010Prop34
280
     0
102
RTVSPost2010PropOp34
 70
     0
102
RTVSPost2010Prop35
280
     0
102
RTVSPost2010PropOp35
 70
     0
102
RTVSPost2010Prop36
280
     0
102
RTVSPost2010PropOp36
 70
     0
102
RTVSPost2010Prop37
 90
       50
102
RTVSPost2010PropOp37
 70
     0
102
RTVSPost2010Prop38
140
0.0
102
RTVSPost2010PropOp38
 70
     0
102
RTVSPost2010Prop39
140
1.0
102
RTVSPost2010PropOp39
 70
     0
102
RTVSPost2010Prop40
 90
        0
102
RTVSPost2010PropOp40
 70
     0
102
RTVSPost2010Prop41ColorIndex
 90
       18
102
RTVSPost2010Prop41ColorRGB
 90
        0
102
RTVSPost2010PropOp41
 70
     0
102
RTVSPost2010Prop42
 90
       50
102
RTVSPost2010PropOp42
 70
     0
102
RTVSPost2010Prop43
 90
        3
102
RTVSPost2010PropOp43
 70
     0
102
RTVSPost2010Prop44ColorIndex
 90
        5
102
RTVSPost2010Prop44ColorRGB
 90
      255
102
RTVSPost2010PropOp44
 70
     0
102
RTVSPost2010Prop45
280
     0
102
RTVSPost2010PropOp45
 70
     0
102
RTVSPost2010Prop46
 90
       50
102
RTVSPost2010PropOp46
 70
     0
102
RTVSPost2010Prop47
 90
       50
102
RTVSPost2010PropOp47
 70
     0
102
RTVSPost2010Prop48
 90
       50
102
RTVSPost2010PropOp48
 70
     0
102
RTVSPost2010Prop49
280
     0
102
RTVSPost2010PropOp49
 70
     0
102
RTVSPost2010Prop50
 90
       50
102
RTVSPost2010PropOp50
 70
     0
102
RTVSPost2010Prop51ColorIndex
 90
      256
102
RTVSPost2010Prop51ColorRGB
 90
-16777216
102
RTVSPost2010PropOp51
 70
     0
102
RTVSPost2010Prop52
140
1.0
102
RTVSPost2010PropOp52
 70
     0
102
RTVSPost2010Prop53
 90
        2
102
RTVSPost2010PropOp53
 70
     0
102
RTVSPost2010Prop54
  1
strokes_ogs.tif
102
RTVSPost2010PropOp54
 70
     0
102
RTVSPost2010Prop55
280
     0
102
RTVSPost2010PropOp55
 70
     0
102
RTVSPost2010Prop56
140
1.0
102
RTVSPost2010PropOp56
 70
     0
102
RTVSPost2010Prop57
140
1.0
102
RTVSPost2010PropOp57
 70
     0
  0
XRECORD
  5
2B9
102
{ACAD_REACTORS
330
2B8
102
}
330
2B8
100
AcDbXrecord
280
     1
102
RTVSPost2010Prop28
280
     0
102
RTVSPost2010PropOp28
 70
     1
102
RTVSPost2010Prop29
280
     1
102
RTVSPost2010PropOp29
 70
     1
102
RTVSPost2010Prop30
280
     1
102
RTVSPost2010PropOp30
 70
     1
102
RTVSPost2010Prop31
280
     0
102
RTVSPost2010PropOp31
 70
     1
102
RTVSPost2010Prop32
280
     0
102
RTVSPost2010PropOp32
 70
     1
102
RTVSPost2010Prop33
280
     0
102
RTVSPost2010PropOp33
 70
     1
102
RTVSPost2010Prop34
280
     0
102
RTVSPost2010PropOp34
 70
     1
102
RTVSPost2010Prop35
280
     0
102
RTVSPost2010PropOp35
 70
     1
102
RTVSPost2010Prop36
280
     0
102
RTVSPost2010PropOp36
 70
     1
102
RTVSPost2010Prop37
 90
       50
102
RTVSPost2010PropOp37
 70
     1
102
RTVSPost2010Prop38
140
0.0
102
RTVSPost2010PropOp38
 70
     1
102
RTVSPost2010Prop39
140
1.0
102
RTVSPost2010PropOp39
 70
     1
102
RTVSPost2010Prop40
 90
        0
102
RTVSPost2010PropOp40
 70
     1
102
RTVSPost2010Prop41ColorIndex
 90
       18
102
RTVSPost2010Prop41ColorRGB
 90
        0
102
RTVSPost2010PropOp41
 70
     1
102
RTVSPost2010Prop42
 90
       50
102
RTVSPost2010PropOp42
 70
     1
102
RTVSPost2010Prop43
 90
        3
102
RTVSPost2010PropOp43
 70
     1
102
RTVSPost2010Prop44ColorIndex
 90
        5
102
RTVSPost2010Prop44ColorRGB
 90
      255
102
RTVSPost2010PropOp44
 70
     1
102
RTVSPost2010Prop45
280
     0
102
RTVSPost2010PropOp45
 70
     1
102
RTVSPost2010Prop46
 90
       50
102
RTVSPost2010PropOp46
 70
     1
102
RTVSPost2010Prop47
 90
       50
102
RTVSPost2010PropOp47
 70
     1
102
RTVSPost2010Prop48
 90
       50
102
RTVSPost2010PropOp48
 70
     1
102
RTVSPost2010Prop49
280
     0
102
RTVSPost2010PropOp49
 70
     1
102
RTVSPost2010Prop50
 90
       50
102
RTVSPost2010PropOp50
 70
     1
102
RTVSPost2010Prop51ColorIndex
 90
      256
102
RTVSPost2010Prop51ColorRGB
 90
-16777216
102
RTVSPost2010PropOp51
 70
     0
102
RTVSPost2010Prop52
140
1.0
102
RTVSPost2010PropOp52
 70
     0
102
RTVSPost2010Prop53
 90
        2
102
RTVSPost2010PropOp53
 70
     1
102
RTVSPost2010Prop54
  1
strokes_ogs.tif
102
RTVSPost2010PropOp54
 70
     1
102
RTVSPost2010Prop55
280
     0
102
RTVSPost2010PropOp55
 70
     1
102
RTVSPost2010Prop56
140
1.0
102
RTVSPost2010PropOp56
 70
     1
102
RTVSPost2010Prop57
140
1.0
102
RTVSPost2010PropOp57
 70
     1
  0
XRECORD
  5
2D7
102
{ACAD_REACTORS
330
2D6
102
}
330
2D6
100
AcDbXrecord
280
     1
102
RTVSPost2010Prop28
280
     0
102
RTVSPost2010PropOp28
 70
     1
102
RTVSPost2010Prop29
280
     1
102
RTVSPost2010PropOp29
 70
     1
102
RTVSPost2010Prop30
280
     1
102
RTVSPost2010PropOp30
 70
     1
102
RTVSPost2010Prop31
280
     0
102
RTVSPost2010PropOp31
 70
     1
102
RTVSPost2010Prop32
280
     0
102
RTVSPost2010PropOp32
 70
     1
102
RTVSPost2010Prop33
280
     0
102
RTVSPost2010PropOp33
 70
     1
102
RTVSPost2010Prop34
280
     0
102
RTVSPost2010PropOp34
 70
     1
102
RTVSPost2010Prop35
280
     0
102
RTVSPost2010PropOp35
 70
     1
102
RTVSPost2010Prop36
280
     0
102
RTVSPost2010PropOp36
 70
     1
102
RTVSPost2010Prop37
 90
       50
102
RTVSPost2010PropOp37
 70
     1
102
RTVSPost2010Prop38
140
0.0
102
RTVSPost2010PropOp38
 70
     1
102
RTVSPost2010Prop39
140
1.0
102
RTVSPost2010PropOp39
 70
     1
102
RTVSPost2010Prop40
 90
        0
102
RTVSPost2010PropOp40
 70
     1
102
RTVSPost2010Prop41ColorIndex
 90
       18
102
RTVSPost2010Prop41ColorRGB
 90
        0
102
RTVSPost2010PropOp41
 70
     1
102
RTVSPost2010Prop42
 90
       50
102
RTVSPost2010PropOp42
 70
     1
102
RTVSPost2010Prop43
 90
        3
102
RTVSPost2010PropOp43
 70
     1
102
RTVSPost2010Prop44ColorIndex
 90
        5
102
RTVSPost2010Prop44ColorRGB
 90
      255
102
RTVSPost2010PropOp44
 70
     1
102
RTVSPost2010Prop45
280
     0
102
RTVSPost2010PropOp45
 70
     1
102
RTVSPost2010Prop46
 90
       50
102
RTVSPost2010PropOp46
 70
     1
102
RTVSPost2010Prop47
 90
       50
102
RTVSPost2010PropOp47
 70
     1
102
RTVSPost2010Prop48
 90
       50
102
RTVSPost2010PropOp48
 70
     1
102
RTVSPost2010Prop49
280
     0
102
RTVSPost2010PropOp49
 70
     1
102
RTVSPost2010Prop50
 90
       50
102
RTVSPost2010PropOp50
 70
     1
102
RTVSPost2010Prop51ColorIndex
 90
      256
102
RTVSPost2010Prop51ColorRGB
 90
-16777216
102
RTVSPost2010PropOp51
 70
     0
102
RTVSPost2010Prop52
140
1.0
102
RTVSPost2010PropOp52
 70
     0
102
RTVSPost2010Prop53
 90
        2
102
RTVSPost2010PropOp53
 70
     1
102
RTVSPost2010Prop54
  1
strokes_ogs.tif
102
RTVSPost2010PropOp54
 70
     1
102
RTVSPost2010Prop55
280
     0
102
RTVSPost2010PropOp55
 70
     1
102
RTVSPost2010Prop56
140
1.0
102
RTVSPost2010PropOp56
 70
     1
102
RTVSPost2010Prop57
140
1.0
102
RTVSPost2010PropOp57
 70
     1
  0
XRECORD
  5
2D5
102
{ACAD_REACTORS
330
2D4
102
}
330
2D4
100
AcDbXrecord
280
     1
102
RTVSPost2010Prop28
280
     0
102
RTVSPost2010PropOp28
 70
     1
102
RTVSPost2010Prop29
280
     1
102
RTVSPost2010PropOp29
 70
     1
102
RTVSPost2010Prop30
280
     1
102
RTVSPost2010PropOp30
 70
     1
102
RTVSPost2010Prop31
280
     0
102
RTVSPost2010PropOp31
 70
     1
102
RTVSPost2010Prop32
280
     0
102
RTVSPost2010PropOp32
 70
     1
102
RTVSPost2010Prop33
280
     0
102
RTVSPost2010PropOp33
 70
     1
102
RTVSPost2010Prop34
280
     0
102
RTVSPost2010PropOp34
 70
     1
102
RTVSPost2010Prop35
280
     0
102
RTVSPost2010PropOp35
 70
     1
102
RTVSPost2010Prop36
280
     0
102
RTVSPost2010PropOp36
 70
     1
102
RTVSPost2010Prop37
 90
       50
102
RTVSPost2010PropOp37
 70
     1
102
RTVSPost2010Prop38
140
0.0
102
RTVSPost2010PropOp38
 70
     1
102
RTVSPost2010Prop39
140
1.0
102
RTVSPost2010PropOp39
 70
     1
102
RTVSPost2010Prop40
 90
        0
102
RTVSPost2010PropOp40
 70
     1
102
RTVSPost2010Prop41ColorIndex
 90
       18
102
RTVSPost2010Prop41ColorRGB
 90
        0
102
RTVSPost2010PropOp41
 70
     1
102
RTVSPost2010Prop42
 90
       50
102
RTVSPost2010PropOp42
 70
     1
102
RTVSPost2010Prop43
 90
        3
102
RTVSPost2010PropOp43
 70
     1
102
RTVSPost2010Prop44ColorIndex
 90
        5
102
RTVSPost2010Prop44ColorRGB
 90
      255
102
RTVSPost2010PropOp44
 70
     1
102
RTVSPost2010Prop45
280
     0
102
RTVSPost2010PropOp45
 70
     1
102
RTVSPost2010Prop46
 90
       50
102
RTVSPost2010PropOp46
 70
     1
102
RTVSPost2010Prop47
 90
       50
102
RTVSPost2010PropOp47
 70
     1
102
RTVSPost2010Prop48
 90
       50
102
RTVSPost2010PropOp48
 70
     1
102
RTVSPost2010Prop49
280
     0
102
RTVSPost2010PropOp49
 70
     1
102
RTVSPost2010Prop50
 90
       50
102
RTVSPost2010PropOp50
 70
     1
102
RTVSPost2010Prop51ColorIndex
 90
      256
102
RTVSPost2010Prop51ColorRGB
 90
-16777216
102
RTVSPost2010PropOp51
 70
     0
102
RTVSPost2010Prop52
140
1.0
102
RTVSPost2010PropOp52
 70
     0
102
RTVSPost2010Prop53
 90
        2
102
RTVSPost2010PropOp53
 70
     1
102
RTVSPost2010Prop54
  1
strokes_ogs.tif
102
RTVSPost2010PropOp54
 70
     1
102
RTVSPost2010Prop55
280
     0
102
RTVSPost2010PropOp55
 70
     1
102
RTVSPost2010Prop56
140
1.0
102
RTVSPost2010PropOp56
 70
     1
102
RTVSPost2010Prop57
140
1.0
102
RTVSPost2010PropOp57
 70
     1
  0
XRECORD
  5
2CF
102
{ACAD_REACTORS
330
2CE
102
}
330
2CE
100
AcDbXrecord
280
     1
102
RTVSPost2010Prop28
280
     0
102
RTVSPost2010PropOp28
 70
     1
102
RTVSPost2010Prop29
280
     1
102
RTVSPost2010PropOp29
 70
     1
102
RTVSPost2010Prop30
280
     1
102
RTVSPost2010PropOp30
 70
     1
102
RTVSPost2010Prop31
280
     0
102
RTVSPost2010PropOp31
 70
     1
102
RTVSPost2010Prop32
280
     0
102
RTVSPost2010PropOp32
 70
     1
102
RTVSPost2010Prop33
280
     0
102
RTVSPost2010PropOp33
 70
     1
102
RTVSPost2010Prop34
280
     0
102
RTVSPost2010PropOp34
 70
     1
102
RTVSPost2010Prop35
280
     0
102
RTVSPost2010PropOp35
 70
     1
102
RTVSPost2010Prop36
280
     0
102
RTVSPost2010PropOp36
 70
     1
102
RTVSPost2010Prop37
 90
       50
102
RTVSPost2010PropOp37
 70
     1
102
RTVSPost2010Prop38
140
0.0
102
RTVSPost2010PropOp38
 70
     1
102
RTVSPost2010Prop39
140
1.0
102
RTVSPost2010PropOp39
 70
     1
102
RTVSPost2010Prop40
 90
        0
102
RTVSPost2010PropOp40
 70
     1
102
RTVSPost2010Prop41ColorIndex
 90
       18
102
RTVSPost2010Prop41ColorRGB
 90
        0
102
RTVSPost2010PropOp41
 70
     1
102
RTVSPost2010Prop42
 90
       50
102
RTVSPost2010PropOp42
 70
     1
102
RTVSPost2010Prop43
 90
        3
102
RTVSPost2010PropOp43
 70
     1
102
RTVSPost2010Prop44ColorIndex
 90
        5
102
RTVSPost2010Prop44ColorRGB
 90
      255
102
RTVSPost2010PropOp44
 70
     1
102
RTVSPost2010Prop45
280
     0
102
RTVSPost2010PropOp45
 70
     1
102
RTVSPost2010Prop46
 90
       50
102
RTVSPost2010PropOp46
 70
     1
102
RTVSPost2010Prop47
 90
       50
102
RTVSPost2010PropOp47
 70
     1
102
RTVSPost2010Prop48
 90
       50
102
RTVSPost2010PropOp48
 70
     1
102
RTVSPost2010Prop49
280
     0
102
RTVSPost2010PropOp49
 70
     1
102
RTVSPost2010Prop50
 90
       50
102
RTVSPost2010PropOp50
 70
     1
102
RTVSPost2010Prop51ColorIndex
 90
      256
102
RTVSPost2010Prop51ColorRGB
 90
-16777216
102
RTVSPost2010PropOp51
 70
     0
102
RTVSPost2010Prop52
140
1.0
102
RTVSPost2010PropOp52
 70
     0
102
RTVSPost2010Prop53
 90
        2
102
RTVSPost2010PropOp53
 70
     1
102
RTVSPost2010Prop54
  1
strokes_ogs.tif
102
RTVSPost2010PropOp54
 70
     1
102
RTVSPost2010Prop55
280
     0
102
RTVSPost2010PropOp55
 70
     1
102
RTVSPost2010Prop56
140
1.0
102
RTVSPost2010PropOp56
 70
     1
102
RTVSPost2010Prop57
140
1.0
102
RTVSPost2010PropOp57
 70
     1
  0
XRECORD
  5
2D1
102
{ACAD_REACTORS
330
2D0
102
}
330
2D0
100
AcDbXrecord
280
     1
102
RTVSPost2010Prop28
280
     0
102
RTVSPost2010PropOp28
 70
     1
102
RTVSPost2010Prop29
280
     1
102
RTVSPost2010PropOp29
 70
     1
102
RTVSPost2010Prop30
280
     1
102
RTVSPost2010PropOp30
 70
     1
102
RTVSPost2010Prop31
280
     0
102
RTVSPost2010PropOp31
 70
     1
102
RTVSPost2010Prop32
280
     0
102
RTVSPost2010PropOp32
 70
     1
102
RTVSPost2010Prop33
280
     0
102
RTVSPost2010PropOp33
 70
     1
102
RTVSPost2010Prop34
280
     0
102
RTVSPost2010PropOp34
 70
     1
102
RTVSPost2010Prop35
280
     0
102
RTVSPost2010PropOp35
 70
     1
102
RTVSPost2010Prop36
280
     0
102
RTVSPost2010PropOp36
 70
     1
102
RTVSPost2010Prop37
 90
       50
102
RTVSPost2010PropOp37
 70
     1
102
RTVSPost2010Prop38
140
0.0
102
RTVSPost2010PropOp38
 70
     1
102
RTVSPost2010Prop39
140
1.0
102
RTVSPost2010PropOp39
 70
     1
102
RTVSPost2010Prop40
 90
        0
102
RTVSPost2010PropOp40
 70
     1
102
RTVSPost2010Prop41ColorIndex
 90
       18
102
RTVSPost2010Prop41ColorRGB
 90
        0
102
RTVSPost2010PropOp41
 70
     1
102
RTVSPost2010Prop42
 90
       50
102
RTVSPost2010PropOp42
 70
     1
102
RTVSPost2010Prop43
 90
        3
102
RTVSPost2010PropOp43
 70
     1
102
RTVSPost2010Prop44ColorIndex
 90
        5
102
RTVSPost2010Prop44ColorRGB
 90
      255
102
RTVSPost2010PropOp44
 70
     1
102
RTVSPost2010Prop45
280
     0
102
RTVSPost2010PropOp45
 70
     1
102
RTVSPost2010Prop46
 90
       50
102
RTVSPost2010PropOp46
 70
     1
102
RTVSPost2010Prop47
 90
       50
102
RTVSPost2010PropOp47
 70
     1
102
RTVSPost2010Prop48
 90
       50
102
RTVSPost2010PropOp48
 70
     1
102
RTVSPost2010Prop49
280
     0
102
RTVSPost2010PropOp49
 70
     1
102
RTVSPost2010Prop50
 90
       50
102
RTVSPost2010PropOp50
 70
     1
102
RTVSPost2010Prop51ColorIndex
 90
      256
102
RTVSPost2010Prop51ColorRGB
 90
-16777216
102
RTVSPost2010PropOp51
 70
     0
102
RTVSPost2010Prop52
140
1.0
102
RTVSPost2010PropOp52
 70
     0
102
RTVSPost2010Prop53
 90
        2
102
RTVSPost2010PropOp53
 70
     1
102
RTVSPost2010Prop54
  1
strokes_ogs.tif
102
RTVSPost2010PropOp54
 70
     1
102
RTVSPost2010Prop55
280
     0
102
RTVSPost2010PropOp55
 70
     1
102
RTVSPost2010Prop56
140
1.0
102
RTVSPost2010PropOp56
 70
     1
102
RTVSPost2010Prop57
140
1.0
102
RTVSPost2010PropOp57
 70
     1
  0
XRECORD
  5
2C1
102
{ACAD_REACTORS
330
2C0
102
}
330
2C0
100
AcDbXrecord
280
     1
102
RTVSPost2010Prop28
280
     0
102
RTVSPost2010PropOp28
 70
     1
102
RTVSPost2010Prop29
280
     1
102
RTVSPost2010PropOp29
 70
     1
102
RTVSPost2010Prop30
280
     1
102
RTVSPost2010PropOp30
 70
     1
102
RTVSPost2010Prop31
280
     0
102
RTVSPost2010PropOp31
 70
     1
102
RTVSPost2010Prop32
280
     0
102
RTVSPost2010PropOp32
 70
     1
102
RTVSPost2010Prop33
280
     0
102
RTVSPost2010PropOp33
 70
     1
102
RTVSPost2010Prop34
280
     0
102
RTVSPost2010PropOp34
 70
     1
102
RTVSPost2010Prop35
280
     0
102
RTVSPost2010PropOp35
 70
     1
102
RTVSPost2010Prop36
280
     0
102
RTVSPost2010PropOp36
 70
     1
102
RTVSPost2010Prop37
 90
       50
102
RTVSPost2010PropOp37
 70
     1
102
RTVSPost2010Prop38
140
0.0
102
RTVSPost2010PropOp38
 70
     1
102
RTVSPost2010Prop39
140
1.0
102
RTVSPost2010PropOp39
 70
     1
102
RTVSPost2010Prop40
 90
        0
102
RTVSPost2010PropOp40
 70
     1
102
RTVSPost2010Prop41ColorIndex
 90
       18
102
RTVSPost2010Prop41ColorRGB
 90
        0
102
RTVSPost2010PropOp41
 70
     1
102
RTVSPost2010Prop42
 90
       50
102
RTVSPost2010PropOp42
 70
     1
102
RTVSPost2010Prop43
 90
        3
102
RTVSPost2010PropOp43
 70
     1
102
RTVSPost2010Prop44ColorIndex
 90
        5
102
RTVSPost2010Prop44ColorRGB
 90
      255
102
RTVSPost2010PropOp44
 70
     1
102
RTVSPost2010Prop45
280
     0
102
RTVSPost2010PropOp45
 70
     1
102
RTVSPost2010Prop46
 90
       50
102
RTVSPost2010PropOp46
 70
     1
102
RTVSPost2010Prop47
 90
       50
102
RTVSPost2010PropOp47
 70
     1
102
RTVSPost2010Prop48
 90
       50
102
RTVSPost2010PropOp48
 70
     1
102
RTVSPost2010Prop49
280
     0
102
RTVSPost2010PropOp49
 70
     1
102
RTVSPost2010Prop50
 90
       50
102
RTVSPost2010PropOp50
 70
     1
102
RTVSPost2010Prop51ColorIndex
 90
      256
102
RTVSPost2010Prop51ColorRGB
 90
-16777216
102
RTVSPost2010PropOp51
 70
     0
102
RTVSPost2010Prop52
140
1.0
102
RTVSPost2010PropOp52
 70
     0
102
RTVSPost2010Prop53
 90
        2
102
RTVSPost2010PropOp53
 70
     1
102
RTVSPost2010Prop54
  1
strokes_ogs.tif
102
RTVSPost2010PropOp54
 70
     1
102
RTVSPost2010Prop55
280
     0
102
RTVSPost2010PropOp55
 70
     1
102
RTVSPost2010Prop56
140
1.0
102
RTVSPost2010PropOp56
 70
     1
102
RTVSPost2010Prop57
140
1.0
102
RTVSPost2010PropOp57
 70
     1
  0
XRECORD
  5
2B3
102
{ACAD_REACTORS
330
2B2
102
}
330
2B2
100
AcDbXrecord
280
     1
102
RTVSPost2010Prop28
280
     0
102
RTVSPost2010PropOp28
 70
     1
102
RTVSPost2010Prop29
280
     1
102
RTVSPost2010PropOp29
 70
     1
102
RTVSPost2010Prop30
280
     1
102
RTVSPost2010PropOp30
 70
     1
102
RTVSPost2010Prop31
280
     0
102
RTVSPost2010PropOp31
 70
     1
102
RTVSPost2010Prop32
280
     0
102
RTVSPost2010PropOp32
 70
     1
102
RTVSPost2010Prop33
280
     0
102
RTVSPost2010PropOp33
 70
     1
102
RTVSPost2010Prop34
280
     0
102
RTVSPost2010PropOp34
 70
     1
102
RTVSPost2010Prop35
280
     0
102
RTVSPost2010PropOp35
 70
     1
102
RTVSPost2010Prop36
280
     0
102
RTVSPost2010PropOp36
 70
     1
102
RTVSPost2010Prop37
 90
       50
102
RTVSPost2010PropOp37
 70
     1
102
RTVSPost2010Prop38
140
0.0
102
RTVSPost2010PropOp38
 70
     1
102
RTVSPost2010Prop39
140
1.0
102
RTVSPost2010PropOp39
 70
     1
102
RTVSPost2010Prop40
 90
        0
102
RTVSPost2010PropOp40
 70
     1
102
RTVSPost2010Prop41ColorIndex
 90
       18
102
RTVSPost2010Prop41ColorRGB
 90
        0
102
RTVSPost2010PropOp41
 70
     1
102
RTVSPost2010Prop42
 90
       50
102
RTVSPost2010PropOp42
 70
     1
102
RTVSPost2010Prop43
 90
        3
102
RTVSPost2010PropOp43
 70
     1
102
RTVSPost2010Prop44ColorIndex
 90
        5
102
RTVSPost2010Prop44ColorRGB
 90
      255
102
RTVSPost2010PropOp44
 70
     1
102
RTVSPost2010Prop45
280
     0
102
RTVSPost2010PropOp45
 70
     1
102
RTVSPost2010Prop46
 90
       50
102
RTVSPost2010PropOp46
 70
     1
102
RTVSPost2010Prop47
 90
       50
102
RTVSPost2010PropOp47
 70
     1
102
RTVSPost2010Prop48
 90
       50
102
RTVSPost2010PropOp48
 70
     1
102
RTVSPost2010Prop49
280
     0
102
RTVSPost2010PropOp49
 70
     1
102
RTVSPost2010Prop50
 90
       50
102
RTVSPost2010PropOp50
 70
     1
102
RTVSPost2010Prop51ColorIndex
 90
      256
102
RTVSPost2010Prop51ColorRGB
 90
-16777216
102
RTVSPost2010PropOp51
 70
     0
102
RTVSPost2010Prop52
140
1.0
102
RTVSPost2010PropOp52
 70
     0
102
RTVSPost2010Prop53
 90
        2
102
RTVSPost2010PropOp53
 70
     1
102
RTVSPost2010Prop54
  1
strokes_ogs.tif
102
RTVSPost2010PropOp54
 70
     1
102
RTVSPost2010Prop55
280
     0
102
RTVSPost2010PropOp55
 70
     1
102
RTVSPost2010Prop56
140
1.0
102
RTVSPost2010PropOp56
 70
     1
102
RTVSPost2010Prop57
140
1.0
102
RTVSPost2010PropOp57
 70
     1
  0
XRECORD
  5
2D3
102
{ACAD_REACTORS
330
2D2
102
}
330
2D2
100
AcDbXrecord
280
     1
102
RTVSPost2010Prop28
280
     0
102
RTVSPost2010PropOp28
 70
     1
102
RTVSPost2010Prop29
280
     1
102
RTVSPost2010PropOp29
 70
     1
102
RTVSPost2010Prop30
280
     1
102
RTVSPost2010PropOp30
 70
     1
102
RTVSPost2010Prop31
280
     0
102
RTVSPost2010PropOp31
 70
     1
102
RTVSPost2010Prop32
280
     0
102
RTVSPost2010PropOp32
 70
     1
102
RTVSPost2010Prop33
280
     0
102
RTVSPost2010PropOp33
 70
     1
102
RTVSPost2010Prop34
280
     0
102
RTVSPost2010PropOp34
 70
     1
102
RTVSPost2010Prop35
280
     0
102
RTVSPost2010PropOp35
 70
     1
102
RTVSPost2010Prop36
280
     0
102
RTVSPost2010PropOp36
 70
     1
102
RTVSPost2010Prop37
 90
       50
102
RTVSPost2010PropOp37
 70
     1
102
RTVSPost2010Prop38
140
0.0
102
RTVSPost2010PropOp38
 70
     1
102
RTVSPost2010Prop39
140
1.0
102
RTVSPost2010PropOp39
 70
     1
102
RTVSPost2010Prop40
 90
        0
102
RTVSPost2010PropOp40
 70
     1
102
RTVSPost2010Prop41ColorIndex
 90
       18
102
RTVSPost2010Prop41ColorRGB
 90
        0
102
RTVSPost2010PropOp41
 70
     1
102
RTVSPost2010Prop42
 90
       50
102
RTVSPost2010PropOp42
 70
     1
102
RTVSPost2010Prop43
 90
        3
102
RTVSPost2010PropOp43
 70
     1
102
RTVSPost2010Prop44ColorIndex
 90
        5
102
RTVSPost2010Prop44ColorRGB
 90
      255
102
RTVSPost2010PropOp44
 70
     1
102
RTVSPost2010Prop45
280
     0
102
RTVSPost2010PropOp45
 70
     1
102
RTVSPost2010Prop46
 90
       50
102
RTVSPost2010PropOp46
 70
     1
102
RTVSPost2010Prop47
 90
       50
102
RTVSPost2010PropOp47
 70
     1
102
RTVSPost2010Prop48
 90
       50
102
RTVSPost2010PropOp48
 70
     1
102
RTVSPost2010Prop49
280
     0
102
RTVSPost2010PropOp49
 70
     1
102
RTVSPost2010Prop50
 90
       50
102
RTVSPost2010PropOp50
 70
     1
102
RTVSPost2010Prop51ColorIndex
 90
      256
102
RTVSPost2010Prop51ColorRGB
 90
-16777216
102
RTVSPost2010PropOp51
 70
     0
102
RTVSPost2010Prop52
140
1.0
102
RTVSPost2010PropOp52
 70
     0
102
RTVSPost2010Prop53
 90
        2
102
RTVSPost2010PropOp53
 70
     1
102
RTVSPost2010Prop54
  1
strokes_ogs.tif
102
RTVSPost2010PropOp54
 70
     1
102
RTVSPost2010Prop55
280
     0
102
RTVSPost2010PropOp55
 70
     1
102
RTVSPost2010Prop56
140
1.0
102
RTVSPost2010PropOp56
 70
     1
102
RTVSPost2010Prop57
140
1.0
102
RTVSPost2010PropOp57
 70
     1
  0
ENDSEC
  0
EOF
